Oops, an error
Loading. Please wait.

Wings Of Faith Tab

118 views 1 this week
no commentswrite comment
1 2 3 4 5
please rate
add to favorites
launch autoscroll
font size
0
reset
how to read this tab
guitar tuner
Autoscroll
slow
fast
+/-
esc
set tempo
stop
Help us to improve Ultimate-Guitar.com Take our survey!
×
Artist: Steel Attack
Title:  Wings Of Faith
Album:  Fall Into Madness
Transcribed by Roger H. Beck (July 12, 2001)
e-mail address: roger_h_beck@hotmail.com

Standard tuning


Theme 1
Main Riff a (12x)

e(-----------------------------)
B(-----------------------------)
G(---14-10-12----10------------)
D(------------14----12-14-10---)
A(-----------------------------)
E(-----------------------------)


Theme 2
Main Riff b (8x)

e(-------------------------------------------------------------)
B(---13131313-10101010-11111111-8888-10101010-6666-8888-5555---)
G(---14141414-10101010-12121212-9999-10101010-7777-9999-5555---)
D(-------------------------------------------------------------)
A(-------------------------------------------------------------)
E(-------------------------------------------------------------)


Riff 1

e(-----------------------------------------------------------|
B(-----------------------------------------------------------|
G(-------7=-----7=-----7=-----7=-----7=-----7=-----7=-----7=-|
D(-------7=-----7=-----7=-----7=-----7=-----7=-----7=-----7=-|
A(---5-5-5=-5-5-5=-5-5-5=-5-5-5=-8-8-8=-8-8-8=-8-8-8=-8-8-8=-|
E(-----------------------------------------------------------|
P.M. . .    . .    . .    . .    . .    . .    . .    . .

e(---------------------------------------------------------)
B(---------------------------------------------------------)
G(-------7=-----7=-----7=-----7=-7-7-7=-7-7-7=-7-----------)
D(---7-7-7=-7-7-7=-7-7-7=-7-7-7=-------------------7-5-3---)
A(-------------------------------------------------8-7-5---)
E(---------------------------------------------------------)
P.M. . .    . .    . .    . .    . .    . .        . . .


Verse 1
Riff 2 (2x)

e(-------------------------------------------------------------|
B(-------------------------------------------------------------|
G(---7=---------------------------7=---------------------------|
D(---7=---7---7-----8=---5-----7=-7=---7---7-----8=---5-----7=-|
A(---5=-5---5---5-5----5---5-5----5=-5---5---5-5----5---5-5----|
E(-------------------------------------------------------------|
P.M.    .   .   . .    .   . .       .   .   . .    .   . .

     1st ending
e(-----------------------------------------------------------------)
B(-----------------------------------------------------------------)
G(---5-----------------------------------------------------5-3-2---)
D(---5-----------------------------------------------------7-5-3---)
A(---3-3-3-3-3-3-3-3-3-3-3-3-3-3-3-3-3-3-3-3-3-3-3-3-3-3-3---------)
E(-----------------------------------------------------------------)
P.M.   . . . . . . . . . . . . . . . . . . . . . . . . . . . . .

     2nd ending
e(-----------------------------------------------------------------)
B(-----------------------------------------------------------------)
G(---5-------------------------------------------------------------)
D(---5-------------------------------------------------------------)
A(---3-3-3-3-3-3-3-3-3-3-3-3-3-3-3-3-3-3-3-3-3-3-3-3-3-3-3-3-3-3-3-)
E(-----------------------------------------------------------------)
P.M.   . . . . . . . . . . . . . . . . . . . . . . . . . . . . . .


Pre-Chorus 1
Riff 3 (2x)

e(-------------------------------------|
B(-------------------------------------|
G(----3=-------------------------------|
D(----3=--3=-2=--2=-3=--3=-2=--2=-2=---|
A(---/1=-------------------------------|
E(-------------------------------------|

     1st ending
e(-------------------------------------------------------------|
B(-------------------------------------------------------------|
G(-------5---5-----7=---3-----5=-----5---5-----7=---3-----5=---|
D(-------7---7-----8=---5-----7=-----7---7-----8=---5-----7=---|
A(---5-5---5---5-5----5---5-5----5-5---5---5-5----5---5-5------|
E(-------------------------------------------------------------|
P.M. . .   .   . .    .   . .    . .   .   . .    .   . .

     2nd ending
e(------------------------------)-----------|
B(------------------------------)-----------|
G(---2===---5-7-5-3-5-3-----5---)---5-3-2---|
D(---2===---7-8-7-5-7-5-7-5-7---)---7-5-3---|
A(---0===---------------8-7-----)-----------|
E(------------------------------)-----------|
P.M.        . . . . . . . .         . . .


Verse 2 - Riff 2 (2x)


Interlude 1
Riff 4 (2x)

e(-----------------------------------------------------|
B(-----------------------------------------------------|
G(-----------------------------------------------------|
D(---0=--0-2-3-2=--2-3--5-/7=-5=-3=-/2=--0=--0-2-3-2=--|
A(---1=--1-3-5-3=--3-5-/7-/8=-7=-5=-/3=-/1=--1-3-5-3=--|
E(-----------------------------------------------------|
P.M.

     1st ending                       2nd ending
e(--------------------------------)----------------)
B(--------------------------------)----------------)
G(--------------------------------)----------------)
D(---2-3-5-3=---5-3-2---3-2-------)---2-3-5-3===---)
A(---3-5-7-5=---7-5-3-5-5-3-5-3---)---3-5-7-5===---)
E(--------------------6-----6-5---)----------------)
P.M.            . . . . . . . .


Chorus 1
Riff 5 (4x)
                                       1st/3rd end.  2nd/4th end.
e(-----------------------------------(-------------)-------------)
B(---------6-------------------------(-------------)-------------)
G(---5-----7-----5-----7-----5---3---(-------------)--3=---/5=---)
D(---7-----------7-----8-----7---5---(--0-2-3-2=---)--3=---/5=---)
A(-----5-5---5-5---5-5---5-5---5---5-(-/1-3-5-3=---)-/1=---/3=---)
E(-----------------------------------(-------------)-------------)
P.M.   . .   . .   . .   . .   .   .


Theme 3 - Main Riff b (7x)


Main Riff b variation

e(------------------------------------------------)
B(---13131313-10101010-11111111-8888-10-----------)
G(---14141414-10101010-12121212-9999-10---5-3-2---)
D(----------------------------------------7-5-3---)
A(------------------------------------------------)
E(------------------------------------------------)
P.M.                                      . . .


Verse 3      - Riff 2 (2x)
Pre-Chorus 2 - Riff 3 (2x)
Chorus 2     - Riff 5 (4x)


Interlude 2
Riff 6 (2x)

e(-----------------------------------)
B(-----------------------------------)
G(-----------------------------------)
D(---3=---2=---3=---/5-7-5=-3-/2=----)
A(---5=---3=---5=---/7-8-7=-5-/3=----)
E(-----------------------------------)


Bridge 1
Riff 7 (2x)

e(-------------------------------------------------------|
B(-------------------------------------------------------|
G(---------3-5---5---7---7---5=-------3-5---5---5-3-2-3=-|
D(---3-5-7-5-7-3-7-3-8-3-8-3-7=-3-5-7-5-7-3-7-3-7-5-3-5=-|
A(---5-7-8-----5---5---5---5----5-7-8-----5---5----------|
E(-------------------------------------------------------|
P.M. . . . .   .   .   .   .    . . . .   .   .

e(----------------------------------------------------)
B(----------------------------------------------------)
G(---------3-5---5---7---7---5=-------3-5=-3----------)
D(---3-5-7-5-7-3-7-3-8-3-8-3-7=-3-5-7-5-7=-5-7-5-3=---)
A(---5-7-8-----5---5---5---5----5-7-8--------8-7-5=---)
E(----------------------------------------------------)
P.M. . . . .   .   .   .   .    . . . .


Guitar Solo
Riff 8 (4x)

e(----------------------------------------------------|
B(----------------------------------------------------|
G(-------9=-----9=------10=--------12=------9=-----9=-|
D(-------9=-----9=------10=--------12=------9=-----9=-|
A(---7-7-7=-7-7-7=-/8-8--8=-/10-10-10=-/7-7-7=-7-7-7=-|
E(----------------------------------------------------|
P.M. . .    . .     . .       .  .      . .    . .

     1st/3rd/4th ending     2nd ending
e(----------------------)---------------------)
B(----------------------)---------------------)
G(--------10=------7=---)---------------------)
D(--------10=------7=---)---------------------)
A(---/8-8--8=-/5-5-5=---)---7-8-7-5-7-5-------)
E(----------------------)---------------8-7---)
P.M.  . .      . .          . . . . . . . .


Bridge 2
Riff 9a

e(-------------------------------------------------------------------|
B(-------------------------------------------------------------------|
G(-------------------------------------------------------------------|
D(-------------------------------------------------------------------|
A(---5-5-5-5-5-5-5-5-5-5-5-5-5-5-5-5-5-5-5-5-5-5-5-5-5-5-5-5-5-5-5-5-|
E(-------------------------------------------------------------------|
P.M. . . . . . . . . . . . . . . . . . . . . . . . . . . . . . . . .


Riff 9b (4x)

e(-------------------------------------------------------------------|
B(-------------------------------------------------------------------|
G(------------------------------------------------------------3-3-3=-|
D(------------------------------------------------------------3-3-3=-|
A(---5-5-5-5-5-5-5-5-5-5-5-5-5-5-5-5-5-5-5-5-5-5-5-5-5-5-5-5-/1-1-1=-|
E(-------------------------------------------------------------------|
P.M. . . . . . . . . . . . . . . . . . . . . . . . . . . . . . . . .

                                      1st/2nd/3rd   4th ending
e(-----------------------------------(------------)------------)
B(-----------------------------------(------------)------------)
G(-----------------------------------(-3=---/5=---)--3=---/5---)
D(-----------------------------------(-3=---/5=---)--3=---/5---)
A(---5-5-5-5-5-5-5-5-5-5-5-5-5-5-5-5-(/1=---/3=---)-/1=---/3---)
E(-----------------------------------(------------)------------)
P.M. . . . . . . . . . . . . . . . .


Chorus 3 - Riff 5 (4x)


Outro
Riff 10 (4x until fade out)

e(---------------------------------)
B(---------------------------------)
G(---------------------------------)
D(---3=-5-7-3=-5-7-3=-5-7-3=-5-7---)
A(---5=-7-8-5=-7-8-5=-7-8-5=-7-8---)
E(---------------------------------)


Symbol explanation:


P.M.  Palm Mute (notes marked with dot)
/     slide
=     sustained

Note: If you find any mistakes please send e-mail
Suggest correction
What's this?
You can suggest a correction to this tab. Community and Mods will review your correction and vote to approve or reject it.
comments
We did not receive enough feedback on this tab! Please rate:
print report bad tab
1 2 3 4 5
guest
You may want to rate the tab now too:
select rating
Please do not post tabs as comments. Select "correction" instead!