Oops, an error
Loading. Please wait.

Long Live Rock And Roll bass

4,082 views 3 this week
no commentswrite comment
1 2 3 4 5
1 last vote to show rating
add to favorites
×
Save as Personal and add changes to this tab that will be seen only by you. Learn more ›
×
You can save this tab as Personal to edit and correct it or add notes. All changes will be seen only by you. Learn more »
launch autoscroll
font size
0
reset
guitar tuner
edit
Autoscroll
slow
fast
+/-
esc
set tempo
stop
Author
Difficulty
Artist:Steel Dragon
Song:Long Live Rock And Roll
Album:Rock Star Soundtrack
Bassist:Jeff Pilson
Tabber:Dev Fuld

This is such an awesome song. It's also a kickass anthem. LONG LIVE ROCK AND 
ROLL!

Key:
* = Let it ring

*Drum Intro*

Intro
G:-----|------|-------|----------------------------------------|
D:-----|Guitar|-------|-----------------------4-2--------------|
A:-----|Part--|-------|---------------------------4-2----------|
D:2-3-4|------|2-1-2-4|4-44-44-44-44-44-44-44---------7-4-2-3-4|

Verse
G:------------------------------------------|
D:------------------------------------------|
A:------------------------------------------|
D:4-44-44-44-44-44-44-44-44-44-44-44-44-44-2|

G:-------------------------------------------------|
D:-------------------------------------------------|
A:-------------------------------------------------|
D:4-44-44-44-44-44-44-44-44-44-44-44-44-44-44-44-44|

Pre-Chorus
G:--------------|--------|--------------|------------------------|
D:--------------|--------|--------------|------------------------|
A:------2-0-----|--------|------2-0-----|------------------------|
D:0*-2*-----6-4*|0*-2*-4*|0*-2*-----6-4*|222222222222222222-2-3-4|

Chorus
G:------------------------------------------|
D:------------------------------------------|
A:------------------------------------------|
D:4-44-44-44-44-44-44-44-44-44-44-44-2-1-2-4|

G:------------------------------------------|
D:-------------------------4-2--------------|
A:-----------------------------4-2----------|
D:4-44-44-44-44-44-44-44-4---------7-4-2-3-4|

Verse

Pre-Chorus

Chorus

Solo
G:---------------------------|---------------------------|
D:---------------------------|---------------------------|
A:-------------------4444-2--|-------------------4444-2--|
D:6-66-66-66-66-66-6--------6|6-66-66-66-66-66-6--------6|

G:---------------------------|---------------------------|
D:---------------------------|---------------------------|
A:-------------------4444-2--|-------------------4444-2--|
D:6-66-66-66-66-66-6--------6|6-66-66-66-66-66-6--------6|

G:---------------------------|---------------------------|
D:---------------------------|---------------------------|
A:-------------------6666-4--|-------------------6666-4--|
D:8-88-88-88-88-88-8--------8|8-88-88-88-88-88-8--------8|

G:---------------------------|------------------------------|
D:---------------------------|-------------6-4--------------|
A:-------------------4444-2--|-----------------6-4----------|
D:6-66-66-66-66-66-6--------6|6-66-66-66-6---------9-6-4-5-6|

Bridge
G:----------------------------------|
D:-----------------4-2--------------|
A:---------------------4-2----------|
D:4---4-4--4--4--4---------7-4-2-3-4|

Chorus to End

End
G:---------------------------------------|
D:4-2---------------------4-2------------|
A:-----4--2-------------------4-2--------|
D:----------7--4--2*--4*----------7-4-2-4|

Thats it. This song can get alittle difficult. I already put it in order. 
Any questions or comments, e-mail me at rocklvson@yahoo.com

            
            
Suggest correction
Creating personal tab
Creating personal tab
You can edit any tab online and save it as your Personal.

You can edit, replace or remove any tab part or add personal notes – all changes will be seen only by you.

Personal tabs can be accessed anytime from any device, even offline.
Learn more »
Give kudos to tab author, rate the tab!
1 2 3 4 5
comments
print report bad tab
guest
You may want to rate the tab now too:
select rating
Wanna post a correction for this tab? Suggest correction