Oops, an error
Loading. Please wait.

Stand Up Tab

version 2
version 2

Whole song

Interactive

25,468 views 27 this week
2 commentsread comments
1 2 3 4 5
accurate
x 5
add to favorites
launch autoscroll
font size
0
reset
how to read this tab
guitar tuner
Tab Pro tools
  • play this tab
  • loop segment
  • change instrument
  • show fretboard
  • metronome
Autoscroll
slow
fast
+/-
esc
set tempo
stop
Contributor
Difficulty
Tabbers playing skills
novice
advanced
Key:

W = Wah
h = Hammer On
P = Pull Off
() = Tapped note (with picking hand)
/ = Slide up or down
* = Pinched Harmonic
X = Dead Note

Bass:
e----------------|
b----------------|
g----------------|
d--4w-3w-2w--0---|
a--xw-xw-xw--0---|
d--4w-3w-2w--0---|

e---------------|
b---------------|
g--44-44-44-----|
d--44-44-44-----|      x3
a--22-22-22-----|
d---------------|

e---------------------------|
b---------------------------|
g--44-44-44-----------------|
d--44-44-44-4w-3w-2w-0------|
a--22-22-22-xw-xw-xw-0------|
d-----------4w-3w-2w-0------|

It goes into the chorus to start

e-----------------------------------------------------|
b-----------------------------------------------------|
g--44-44-44--4---------------------44-44-44-4---------|
d--44-44-44--4---------------------44-44-44-4---------|
a--22-22-22--2---------------------22-22-22-2---------|
d--------------------0-23p2-0-----------------0-23----|

e---------------------------------------------|
b---------------------------------------------|
g--44-44-44-4---------------44-44-44----------|
d--44-44-44-4---------------44-44-44-4-3-2-0--|
a--22-22-22-2---------------22-22-22-x-x-x-0--|
d-----------------0-23p2-0----------4-3-2-0---|

Verses:

The verses are very strangely played. Wylde throws in a few pinched
harmonics out of nowhere. Listen to the recording to get the timing.

e--------------------------------------------------------------|
b--------------------------------------------------------------|
g--2-4----------243--4------------2-4-------2-43-4-------------|
d--2-4----------243--4------------2-4-----2-2-43-4-------------|   x2
a--0-2----------021--2------------0-2-----2-0-21-2-------------|
d------------------------0-23p2-0---------2----------0-23------|


Back to chorus

"Stand up and shout"

Then back to verse.

This is the riff that is played before and during the solo:

d--------                      d--4*--|
a--------       x12            a------|
d--7h9-9-                      d------|

Solo:

Ok, so this solo is really nuts. Wylde uses alot of tapping and weird
shit. This guy is a friggin God, so don't be discouraged if you
have difficulty with this.

e--(12)10(12)10(12)10-(10)9(10)9(10)9-(9)7(9)7(9)7------------------------------------------|
b------------------------------------------------(10)7(10)7(10)7-(8)7(8)7(8)7-(7)6(7)6(7)6--|
g-------------------------------------------------------------------------------------------|
d-------------------------------------------------------------------------------------------|
a-------------------------------------------------------------------------------------------|
d-------------------------------------------------------------------------------------------|

e---------------------------------------------------|
b---------------------------------------------------|
g--(9)7(9)7(9)7-(7)6(7)6(7)6-(6)4(6)4--2WWWW--------|
d---------------------------------------------------|
a---------------------------------------------------|
d---------------------------------------------------|


All that repeats twice. Then:
|--PM--|
e----------       e------------|
b--------7-       b--7--77-9*--|
g--------7-  x2   g--7--77-----|
d------7---       d------------|
a--7-9-----       a------------|
d----------       d------------|


|--PM--|
b--------7--9b11--7-9-7----------7-9-|
g--------7--9b11--7-9-7----------7-9-|
d------7-----------------9-9---9-----|
a--7-9-------------------------------|

e-------------------|
b--9b11-------------|
g--9b11-------------|  x2
d---------9-8-7-----|
a---------------9-8-|
d-------------------|

e----------------------------|
b----7-----------------------|
g--9----9-8-7----------------|
d-------------9-8-7-5-7-7-5--|
a----------------------------|
d----------------------------|

e--------------         e-------------|
b------9h12-9--   x8    b--9----12b13-|
g--11b13-------         g-------------|
                        d----11-------|

This part is played really fast.

e--(12)9(12)9(12)9---------------------------------------------------------|
b-------------------(12)9(12)9(12)9(12)9-----------------------------------|
g-----------------------------------------(11)9(11)9(11)9(11)9------11b14--|
d--------------------------------------------------------------11-9--------|


This part is actually picked, and is very difficult

e-------------------------------------------------------------------------------------|
b--12-9------12-9-12-9------12-9-12-9------12-9------12-9-12-9------12-9-12-9---------|
g-------11-9-----------11-9-----------11-9------11-9-----------11-9------------11-9---|
d-------------------------------------------------------------------------------------|

Slow down for this part.

e--------------------7-------------------|
b--7b9--7-10b12--10--10-7b9--7-10b12-9---|
g--9b11---12b14---------9b11---12b14-7---|
d----------------------------------------|

e--------------------7-----------------------------|
b--7b9--7--10b12-10--10----------------------------|
g--9b11----12b14----------9b11-9p7-9b11--9b11-7b9--|
d--------------------------------------------------|

Bridge

e---------------|
b---------------|
g--44-44-44-----|
d--44-44-44-----|      x3
a--22-22-22-----|
d---------------|

e-------------------------|
b-------------------------|
g--44-44-44---------------|
d--44-44-44-4w-3w-2w-0----|
a--22-22-22-xw-xw-xw-0----|
d-----------4w-3w-2w-0----|
comments
print report bad tab
2 comments total.
0 reply
DefinitelyTones wrote on March 13 2015, 01:23 pm

I'm pretty sure this song is in A#. Definitely lower than D for sure.

0 reply
DefinitelyTones wrote on March 13 2015, 01:26 pm

Lack of accuracy. Tab is in incorrect tuning and notes are wrong as a result. Fixing the tuning might correct the issue, though.

I want to post or [tab]
guest
You may want to rate the tab now too:
select rating
Please do not post tabs as comments. Select "correction" instead!