Oops, an error
Loading. Please wait.

We All Die Young tab

version 4
version 4

Whole song

Interactive

13,593 views 15 this week
1 commentread comment
1 2 3 4 5
x 3
add to favorites
×
Save as Personal and add changes to this tab that will be seen only by you. Learn more ›
×
You can save this tab as Personal to edit and correct it or add notes. All changes will be seen only by you. Learn more »
launch autoscroll
font size
0
reset
how to read this tab
guitar tuner
edit
Autoscroll
slow
fast
+/-
esc
set tempo
stop
Author
Steel Dragon
We Die Young

Tuned : E a d g b e ( 1/3 down )

hey I didn't see many of these tabs!
So I tabbed it, thanks for looking!


 [Verse]
e|-----------------------------------------------------|
B|-----------------------------------------------------|
G|---11/13-13-13---13/15--15---11----11--11------------|
D|-----------------------------------------------------|
A|----9/11--11-11--11/13--13----9-----9---9------------|
E|-----------------------------------------------------|

e|------------------------------------------------------|
B|------------------------------------------------------|
G|----8/11--11- 11--11--11--11-/-10---10---10-----------|
D|------------------------------------------------------|
A|----6/9----9---9---9---9---9--/-8----8----8-----------|
E|------------------------------------------------------|


e|---------------------------------|
B|---------------------------------|
G|----------6h8p6------------------|
D|---6/8---------------------------|
A|---------------------------------|
E|---------------------------------|

[Chorus]

 Wah /
e|-------------|
B|----5^-------|
G|----5^-------|
D|-------------|
A|-------------|
E|-------------|

 Pick slides before the chords.
e|--------------------------------------|
B|--------------------------------------|
G|----//--//-----//---------------------|
D|--------------------------------------|
A|--------------------------------------|
E|--------------------------------------|

e|------------------|
B|------------------|
G|------------------|
D|--9--8---4--------|
A|--9--8---4--------|
E|--7--6---2--------|

e|---------------------------------|
B|---------------------------------|
G|---------------------------------|
D|---------------------------------|
A|---------------------------------|
E|--7---6----2---xx--2*~~----------|


 [Verse]
e|-----------------------------------------------------|
B|-----------------------------------------------------|
G|---11/13-13-13---13/15--15---11----11--11------------|
D|-----------------------------------------------------|
A|----9/11--11-11--11/13--13----9-----9---9------------|
E|-----------------------------------------------------|

e|------------------------------------------------------|
B|------------------------------------------------------|
G|----8/11--11- 11--11--11--11-/-10---10---10-----------|
D|------------------------------------------------------|
A|----6/9----9---9---9---9---9--/-8----8----8-----------|
E|------------------------------------------------------|

Cool little intro lick with each verse 



e|---------------------------------|
B|---------------------------------|
G|----------6h8p6------------------|
D|---6/8---------------------------|
A|---------------------------------|
E|---------------------------------|



Repeat verse 
then chorus

 Now The Solo
                                         let these eights ring
e|------------------------------------------------------------|
B|------------------------------------------------------------|
G|---------6h8-------6h8p6--------6-----8^-8^-----------------|
D|---6/8---------8------------8-8-----------------------------|
A|------------------------------------------------------------|
E|------------------------------------------------------------|

e|---------------------------------------------|
B|-----9----------9----------9-----------------|
G|-----------9^---------9^-------8^--6---------|
D|---------------------------------------------|
A|---------------------------------------------|
E|---------------------------------------------|

e|----------------------6-9-6----------9-6-----------|
B|----------------6-9-----------9-6----------9-6-----|
G|---------6-8---------------------------------------|
D|---6/8---------------------------------------------|
A|---------------------------------------------------|
E|---------------------------------------------------|

e|--------------------------------------------|
B|---9--6------------9--6---------------------|
G|-----------8--6------------8-6--------------|
D|--------------------------------------------|
A|--------------------------------------------|
E|--------------------------------------------|

e|-----9-6-----6-9------------------------------------|
B|-----------9-------9--6-----9-6---------------------|
G|--------------------------8---------8------8^-------|
D|----------------------------------------------------|
A|----------------------------------------------------|
E|----------------------------------------------------|
                                         Let Ring

e|---------9--------9-------------|
B|----9^------9^--------9~~-------|
G|--------------------------------|
D|--------------------------------|
A|--------------------------------|
E|--------------------------------|

e|-------7h9h12--------12p9p7h9h12------------------|
B|--12-------------12-----------------------12------|
G|--------------------------------------------------|
D|--------------------------------------------------|
A|--------------------------------------------------|
E|--------------------------------------------------|

e|---7h9h12p9p7-------------7h9h12p9p7--------------|
B|-------------------12p7h9-------------------------|
G|--------------------------------------------------|
D|--------------------------------------------------|
A|--------------------------------------------------|
E|--------------------------------------------------|

e|----T12p9p7--T12p9p7-T12p9p7--T12p9p7--------------|
B|---------------------------------------------------|
G|---------------------------------------------------|
D|---------------------------------------------------|
A|---------------------------------------------------|
E|---------------------------------------------------|

e|-----T14p12p9p7---T14p12p9p7---T14p12p9p7---------------|
B|--------------------------------------------------------|
G|--------------------------------------------------------|
D|--------------------------------------------------------|
A|--------------------------------------------------------|
E|--------------------------------------------------------|

Thats all i could tab sorry guys
But hope you like it



************************************

| /  Slide up
| h  Hammer-on
| p  Pull-off
| x  Dead note
| ~  Vibrato 

************************************

            
            
Suggest correction
Creating personal tab
Creating personal tab
You can edit any tab online and save it as your Personal.

You can edit, replace or remove any tab part or add personal notes – all changes will be seen only by you.

Personal tabs can be accessed anytime from any device, even offline.
Learn more »
Give kudos to tab author, rate the tab!
1 2 3 4 5
comments
print report bad tab
1 comment total.
0 reply
fatswhereitsat 10 Feb 20, 2009 06:40 PM

the tabs sound very close but the name is we all die young

guest
You may want to rate the tab now too:
select rating
Wanna post a correction for this tab? Suggest correction