Oops, an error
Loading. Please wait.

Asian Hooker Bass Tab

version 1
version 1

Whole song

Interactive

8,923 views 21 this week
2 commentsread comments
1 2 3 4 5
accurate
x 8
add to favorites
launch autoscroll
font size
0
reset
guitar tuner
Tab Pro tools
  • play this tab
  • loop segment
  • change instrument
  • show fretboard
  • metronome
×
Best way to learn
"Asian Hooker"
Autoscroll
slow
fast
+/-
esc
set tempo
stop
Contributor
Difficulty
intermediate
Steel Panther – Asian Hooker
Standard Tuning (E,A,D,G)
Intro (00:04)
G|----------------------------------------------|
D|----------------------------------------------|
A|--–22-33-00-22—00--------22-33-00-22----------| x2
E|-00--------------33—22-00-----------33-67-67--|

Verse (00:18)
G|-------------------------------------------------|
D|-------------------------------------------------|
A|-------5~-5557---------67976-------5~-3~-2~-10-9-|
E|-00-33--------00-33-7-7-----7-00-33--------------|

G|------------------------------------------|
D|------------------------------------------|
A|------5~-5557---------6-9-76-----5~-3~-2~-|
E|-00-33-------00-33-7-7-7-7--00-33---------|

Bridge (00:46)
G|------------------------------------------------------------|
D|------------------------------------------------------------|
A|------------------------------------------------------------| 
E|-0000-0000-0000-0000-3565-0000-0000-0000-0000-3565-78787878-| 

Chorus (00:56)
G|---------------------------------------------|
D|-----------575----------------575------------|
A|-7757---057---75--3-5-7757-057---75-3-5-5-2~-| x2
E|-------------------3-----------------3-------|

Intro x1 (01:10)
Verse x1 (01:17)
Bridge x1 (01:45)
Chorus x2 (01:57)

Breakdown (02:15) on the last time you play this let the final E ring
G|-------------------------|
D|-------------------------|
A|-2356------2356----------| x4
E|------0236-------7532-0--|

Solo (02:51)
G|------------------------------------------------------------------------------------|
D|-------------11111-33333----------------------------11111-33333-55555---------------|
A|-33333-44444-----------------------------33333 44444------------------8~4~7~4~------|
E|------------------------00000-33333-55555-------------------------------------5~4~0~|

Chorus x1(03:24)

Outro (03:35)
G|----------------------------------------------------------------|
D|----------------------------------------------------------------|
A|----------------------------------------------------------------|
E|-0-0-0-0-0-0-/999999999999-/77777-/12-1-12-12-12-12-12-12-12-12-|

G|------------------------------|
D|------------------------------|
A|-2-3-2-0-5-2-------5h7--------|
E|------------3-2-0~--------0~--|

The Breakdown and solo im not too sure about but I think the rest is at least 99%
comments
print report bad tab
2 comments total.
+1 reply
kylehewitt0 wrote on October 11 2013, 03:51 pm

Wow so bad but thanks for the basics. I will post a correction.

+3 reply
kylehewitt0 wrote on October 11 2013, 04:41 pm

Steel Panther ? Asian Hooker
1/2 step down (D?,G?,C?,F?)
Intro (00:04)
F?|----------------------------------------------|
C?|----------------------------------------------|
G?|--?22-33-00-22?-00-------22-33-00-22----------| x2
D?|-00-----------33--22?--00-----------33-67-67--|

Verse (00:18)
F?|-------------------------------------------------|
C?|-------------------------------------------------|
G?|-------5~-5557---------67976-------5~-3~-2~-10-9-|
D?|-00-33--------00-33-7-7-----7-00-33--------------|

F?|------------------------------------------|
C?|------------------------------------------|
G?|------5~-5557---------6-9-76-----5~-3~-2~-|
D?|-00-33-------00-33-7-7-7-7--00-33---------|

Bridge (00:46)
F?|-----------------------------------------------------------------|
C?|-----------------------------------------------------------------|
G?|-----------------------------------------------------------------|
D?|-0000-0000-0000-0000-3565-0000-0000-0000-0000-3-5-6-5-78787878---|

Chorus (00:56)
F?|---------------------------------------------|
C?|-----------454----------------454------------|
G?|-7757---057---75--3-5-7757-057---75-3-5-5-2~-| x2
D?|-------------------3-----------------3-------|

Intro x1 (01:10)
Verse x1 (01:17)

Bridge x1 (01:45)
F?|-----------------------------------------------------------------------|
C?|-----------------------------------------------------------------------|
G?|-----------------------------------------------------------------------|
D?|-0000-0000-0000-0000-3565-0000-0000-0000-0000-3-5-6-5-78787878--7-5-3-2|

Chorus x2 (01:57)

Breakdown (02:15)
F?|-----------------------------|
C?|-----------------------------|
G?|-2356------2356--------------|
D?|------0236------0236-7532-0--|

Solo (02:51)

F?|----------------------------------------------|
C?|----------------------------------------------|
G?|-2356------2356----------------7---5---3---2--|
D?|------0236-----------------------5---3---2----|

Chorus x1(03:24)

Outro (03:35)
F?|----------------------------------------------------------------|
C?|----------------------------------------------------------------|
G?|----------------------------------------------------------------|
D?|-0-0-0-0-0-0-0-0-0-0-0-0-0-0-0-0-0/12-1-12-12-12-12-12-12-12-12-|

F?|----------------------------|
C?|----------------------------|
G?|-3-2-0-5-2-------5h7\-------|
D?|----------3-2-0~------------|

I want to post or [tab]
guest
You may want to rate the tab now too:
select rating
Please do not post tabs as comments. Select "correction" instead!