Oops, an error
Loading. Please wait.

Asian Hooker Tab

version 1
version 1

Whole song

Interactive

55,748 views 30 this week
8 commentsread comments
1 2 3 4 5
x 7
add to favorites
launch autoscroll
font size
0
reset
how to read this tab
guitar tuner
Autoscroll
slow
fast
+/-
esc
set tempo
stop
Help us to improve Ultimate-Guitar.com Take our survey!
×
Difficulty
Tuning
novice
D# G# C# F# A# D#
/ - slide
~  - vibrato

Intro:
E-----------------------------------------------------------------------|
B-----------------------------------------------------------------------|
G-----------------------------------------------------------------------|
D-----44-55-22-44----22--------44-55-22-44------------------------------|
A--22-22-33-00-22-55-00-44--22-22-33-00-22-55---------------------------|
E--00-------------33----22--00-------------33---6/7-6/7-----------------|
 Pm-------------------------------------------
Verse
E-----------------------------------------------------------------------|
B-----------------------------------------------------------------------|
G-----------------------------------------------------------------------|
D--------7~--7779-----------------------------7~--5~-4~---12-11---------|
A--22-55-5~--5557-22-55--9—-6-7-9-7-6---22-55-5~--3~-2~---10-9----------|
E--00-33----------00-33--7-7---------7--00-33---------------------------|

E-----------------------------------------------------------------------|
B-----------------------------------------------------------------------|
G-----------------------------------------------------------------------|
D--------7~-7779---------------------------7~--5~-4~--------------------|
A--22-55-5~-5557--22-55--9--6-9-76--22-55—-5~--3~-2~--------------------|
E--00-33----------00-33--7-7-7-7----00-33-------------------------------|

Bridge (smells like sushi)
E-------------------------------------------------------------|---------|
B-------------------------------------------------------------|---------|
G-------------------------------------------------------------|-second--|
D-------------------------------------------------------------|--time---|
A---------------------5787---------------------5787-----------|-9754----|
E-0000-0000-0000-0000-3565-0000-0000-0000-0000-3565-78787878--|-7532----|

Chrous (Asian hooker)
E-----------------------------------------------------------------------|
B--------|-not sure---|-------------------------------------------------|
G--------|------------|-------------------------------------------------|
D-9979---|------575---|-5---7-----9979------575---5---7-4---------------|
A-7757---|--057----75-|-3-5-5-----7757--057----75-3-5-5-2---------------|
E--------|------------|---3------------------------ 3-------------------|

Bridge #2 (hey im the man, with a plan) not 100% sure about this bit
E-----------------------------------------------------------------------|
B-----------------------------------------------------------------------|
G-----------------------------------------------------------------------|
D-4-5-7-8------------4-5-7-8--------------------------------------------|
A—2-3-5-6---2-4-5-8--2-3-5-6--2-4-5-8—-9-7-5-4-2~-----------------------|
E-----------0-2-3-6-----------0-2-3-6—-7-5-3-2-0~-----------------------|

Don’t know the solo but this guy can teach you it 
http://www.youtube.com/watch?v=4l4QUqHxPqM

Outro
E-----------------------------------------------------------------------|
B-----------------------------------------------------------------------|
G-----------------------------------------------------------------------|
D---------------------------7-9/----------------------------------------|
A--2--3-2-0-5-2----2~-------5-7/----------------------------------------|
E--0-----------3-2-0~---------------------------------------------------|

Order

Intro
Verse
Bridge
Chorus
Intro
Verse
Bridge
Chorus
Bridge #2
Solo
Chorus
Outro
Suggest correction
comments
print report bad tab
8 comments total. Showing first comments.
+1 reply
rickyj 110 Oct 11, 2009 09:18 PM

shouldnt you have said that its in Eb?

+2 reply
inxthexface 10 Oct 21, 2009 04:32 PM

i think the intro is something like this but with a harmonised bit that i havent figured out yet...

E--15-17-15----------15~------------------------------------|
B-----------17-15-17-------15-17-15-------------------------|
G-----------------------------------16-14-16----------------|
D-----------------------------------------------------------|
A-----------------------------------------------------------|
E-----------------------------------------------------------|

+1 reply
ronhoward 125 Nov 14, 2009 05:49 PM

Overall a pretty good tab.

guest
You may want to rate the tab now too:
select rating
Wanna post a correction for this tab? Suggest correction