Oops, an error
Loading. Please wait.

Community Property ukulele

version 1
version 1

Whole song

Interactive

1,161 views 3 this week
no commentswrite comment
1 2 3 4 5
3 more votes to show rating
add to favorites
×
Save as Personal and add changes to this tab that will be seen only by you. Learn more ›
×
You can save this tab as Personal to edit and correct it or add notes. All changes will be seen only by you. Learn more »
launch autoscroll
font size
0
reset
transpose
0
reset
simplify chords
display chords
guitar tuner
backing track
0:00
0:00
edit
Autoscroll
slow
fast
+/-
esc
set tempo
stop
Difficulty
Strumming
There is no strumming pattern for this song yet. and get +5 IQ
Community Property 
as Performed by Steel Panther

Tabbed by: Leonidas ( aka Jarom!r)

special thanks to "T" who already figured out the chords ( to check his tab check 
this link: http://www.ultimate-guitar.com/tabs/s/steel_panther/community_property_ver2_tab.htm )
what i'm gonna do is putting the chords and lyrics together, to make it easier to sing along ;)

chords used:
tuning: Eb (eb Bb Gb Db Ab eb)
      
     E5/A E5/C# B5  E5    A5  C#5 
e|---------------------------------------------------------------------------|
B|---------------------------------------------------------------------------|
G|----4----4----4---------2----6---------------------------------------------|
D|----2----2----4----2----2----6---------------------------------------------|
A|----0----4----2----2----0----4---------------------------------------------|
E|-------------------0-------------------------------------------------------|

to make it easier, i used the chord names from standart tuning ;)

during the B5 chord in the verses they do this:

e|---------------------------------------------------------------------------|
B|---------------------------------------------------------------------------|
G|------4-4-4-4-4-4-4-4------------------------------------------------------|
D|------4-4-4-4-4-4-4-4------------------------------------------------------|
A|------2-2-2-0-2-2-2-0------------------------------------------------------|
E|---------------------------------------------------------------------------|



        E5/A                      E5/C#
I would give you the stars in the sky
                      B5
But they're too far away
E5/A                        E5/C#
If you were a hooker, you'd know
                B5
I'd be happy to pay
E5/A                   E5/C#
If suddenly you were a guy
                 B5  
I'd be suddenly gay

          E5      A5        B5    
'Cause my heart belongs to you
   E5       A5        B5
My love is pure and true
    E5      A5       B5
My heart belongs to you
        A5(once let ring)
But my cock is community property

           E5/A                       E5/C#
You're the only girl that I like to screw
                    B5
When I'm not on the road
E5/A                           E5/C#
When I come home, my dinner's made
                       B5
And the front lawn is mowed
E5/A
I'll kiss your mouth
      E5/C#                B5
Even after you swallow my load

          E5       A5       B5
'Cause my heart belongs to you
             E5         A5          B5
There ain't nothing that I wouldn't do
   E5       A5       B5
My heart belongs to you
        A5
But my cock is community property

bridge:
B5      C#5      A5
I wanna make it clear
So you retain it
B5       C#5       A5
My dick's a free spirit
And you can't restrain it
No, you just can't chain it down


at the next verse there is a little picked part:

     Esus4           E               Bsus4
e|-------0-------0-------0-------0-------0-------0---------------------------|
B|-----0---0---0---0---0---0---0---0---4---4---4---4-------------------------|
G|---2-------2-------1-------1-------4-------4-------4-----------------------|  
D|---------------------------------------------------------------------------|
A|---------------------------------------------------------------------------|
E|---------------------------------------------------------------------------|

Esus4         
I love you so much it hurts
E                  Bsus4
From my head to my feet
Esus4      
I think of you and I can't
E                  Bsus4
Help but fondle my meat
Esus4                 
I see your face every time
E                  Bsus4
That I go out and cheat

          E5       A5       B5
'Cause my heart belongs to you
             E5          A5        B5
There ain't nothing that I wouldn't do
    E5      A5       B5
My heart belongs to you
        A5
But my dong is community property
Yeah, yeah, yeah

Suggestions to my email address please ;) 

lionfalcon@web.de



            
            
Suggest correction
Creating personal tab
Creating personal tab
You can edit any tab online and save it as your Personal.

You can edit, replace or remove any tab part or add personal notes – all changes will be seen only by you.

Personal tabs can be accessed anytime from any device, even offline.
Learn more »
Give kudos to tab author, rate the tab!
1 2 3 4 5
comments
print report bad tab
guest
Wanna post a correction for this tab? Suggest correction