Oops, an error
Loading. Please wait.

Death To All But Metal Bass Tab

version 1
version 1

Whole song

Interactive

11,342 views 3 this week
no commentswrite comment
1 2 3 4 5
worth learning
x 4
add to favorites
launch autoscroll
font size
0
reset
guitar tuner
Tab Pro tools
  • play this tab
  • loop segment
  • change instrument
  • show fretboard
  • metronome
×
Best way to learn
"Death To All But Metal"
Autoscroll
slow
fast
+/-
esc
set tempo
stop


       !!!DEATH TO ALL BUT METAL - STEEL PANTHER!!!

G ---------------------------------------|
D -----------------------4---------------|
A ---------------------4---6-------------|   VERSE
D -1-4-6-7-6-4-x3--6-7-------7-6---------|

G ------------------7-6---6---------------|
D ----------------------8---8-7-6-4-------|
A ----2-4---------------------------------|   PRE-CHORUS
D 1-4-------------------------------------|

G ----------------------------------------|
D ----------------------------------------|
A 5-4-2-----------------------------------|  CHORUS
D ------6---------------------------------|

G ----------------------------------------|
D ----------------------------------------|
A --------------------11-14-11------------|  SOLO
D 6-9-11-12-9-6-11-13----------12-11------|

G ----------------------------------------|
D ----------------------------------------|
A 5-4-2---x2---5-4-2-5-4------------------|  ENDING
D ------6----------------6-6--------------|

The solo's a bit off on the A string, so pull your fingers out and work it out yourself:)

tom frost
comments
print report bad tab
I want to post or [tab]
guest
You may want to rate the tab now too:
select rating
Please do not post tabs as comments. Select "correction" instead!