Oops, an error
Loading. Please wait.

Death To All But Metal Drum Tab

version 1
version 1

Whole song

Interactive

1,820 views 1 this week
no commentswrite comment
1 2 3 4 5
please rate
add to favorites
launch autoscroll
font size
0
reset
guitar tuner
Autoscroll
slow
fast
+/-
esc
set tempo
stop
Help us to improve Ultimate-Guitar.com Take our survey!
×
Contributor
Drummer - Stix Zadinia


X = Hitting Symbals or Hi-Hats
0 = Hitting Drums

                                                  (Sizzling Hi-Hats)

Intro

C|-----------------------------------------------------|
H|-----------------------------------------------------|
S|-----------------------------------------------------|
B|-0--------------------------0------------------------|

Alright...

C|-X--------------------------------------------------|
H|------X-X-X-X-X-X----X-----X-X-X-X-X-X--------------|
S|--------0-------0------------0-------0--------------|
B|-0----------0-0------0-----------0-0----------------|

C|-X--------------------------------------------------|
H|------X-X-X-X-X-X----X-----X-X-X-X-X-X--------------|
S|--------0-------0-----------0---0-0-0---------------|
B|-0----------0-0------0------------------------------|

C|-X--------------------------------------------------|
H|------X-X-X-X-X-X----X-----X-X-X-X-X-X--------------|
S|--------0-------0------------0-------0--------------|
B|------------0-0------0-----------0-0----------------|

C|-X--------------------------------------------------|
H|------X-X-X-X-X-X----X-----X-X-X-X------------------|
S|--------0-------0-----------0---0-------------------|
B|-0----------0-0------0------------00----------------|

Verse

F*ck the...

C|-X--------------------------------------------------|
H|------X-X-X-X-X-X----X-----X-X-X-X-X-X--------------|
S|--------0-------0------------0-------0--------------|
B|-0----------0-0------0-----------0-0----------------|

C|-X--------------------------------------------------|
H|------X-X-X-X-X-X----X-----X-X-X-X---X--------------|
S|--------0-------0------------0---0---0--------------|
B|-0----------0-0------0------------0-----------------|

C|-X--------------------------------------------------|
H|------X-X-X-X-X-X----X----X-X-X-X-X-X---------------|
S|--------0-------0-----------0-------0---------------|
B|-0----------0-0------0----------0-0-----------------|

C|-X--------------------------------------------------|
H|------X-X-X-X-X-X----X-----X-X-X--------------------|
S|--------0-------0------------0---000----------------|
B|-0----------0-0------0------------------------------|


Bridge

                                                (Closed Hi-Hats)
They can...

C|-X---X----------X---X------------------------------|
H|---X---X-X-X------X---X-X-X------------------------|
S|-----0-----0--------0-----0------------------------|
B|-0-----0-0------------0-0--------------------------|

C|-X---X----------X---X------------------------------|
H|---X---X-X-X------X---X-X-X------------------------|
S|-----0-----0--------0-----0------------------------|
B|-0-----0-0------------0-0--------------------------|

Chorus

Death to all...

C|--------------------------X------X-----------------|
R|---X---X---X---X----XXXX---XXXX--------------------|
H|---------------------------------------------------|
S|---0---0---0---0----------0------0-----------------|
B|-000000000000000----0000---0000--------------------|

C|--------------------------X------X-----------------|
R|---X---X---X---X----XXXX---XXXX--------------------|
H|---------------------------------------------------|
S|---0---0---0---0----------0------0-----------------|
B|-000000000000000----0000---0000--------------------|

C|---------------------------------------------------|
R|---X---X---X---X-----------------------------------|
H|---------------------------------------------------|
S|---0---0---0---0-----------------------------------|
B|-000000000000000-----------------------------------|

Verse 2

Death to Papa Roach...

                                                 (Sizzling Hi-Hats)

C|-X-------------------------------------------------|
H|------X-X-X-X-X-X----X-----X-X-X-X-X-X-------------|
S|--------0-------0------------0-------0-------------|
B|-0----------0-0------0-----------0-0---------------|


C|-X-------------------------------------------------|
H|------X-X-X-X-X-X----X-----X-X-X-------------------|
S|--------0-------0------------0---000---------------|
B|-0----------0-0------0-----------------------------|

C|-X-------------------------------------------------|
H|------X-X-X-X-X-X----X-----X-X-X-X-X-X-------------|
S|--------0-------0------------0-------0-------------|
B|-0----------0-0------0-----------0-0---------------|

C |-X------------------------------------------------|
H |------X-X-X-X-X-X----X-----X-X-X------------------|
S |--------0-------0------------0---0----------------|
B |-0----------0-0------0------------0---------------|
1T|-----------------------------------0--------------|

Bridge

                                                  (Clozed Hi-Hats)

Where is Def Leppard...

C|-X---X----------X---X------------------------------|
H|---X---X-X-X------X---X-X-X------------------------|
S|-----0-----0--------0-----0------------------------|
B|-0-----0-0------------0-0--------------------------|

C|-X---X---------------------------------------------|
H|---X---X-X-X----X-------X--------------------------|
S|-----0-----0----0-------0--------------------------|
B|-0-----0-0-------0000000-0000000-------------------|

Chorus

Death to all...

C|--------------------------X------X-----------------|
R|---X---X---X---X----XXXX---XXXX--------------------|
H|---------------------------------------------------|
S|---0---0---0---0----------0------0-----------------|
B|-000000000000000----0000---0000--------------------|

C|--------------------------X------X-----------------|
R|---X---X---X---X----XXXX---XXXX--------------------|
H|---------------------------------------------------|
S|---0---0---0---0----------0------0-----------------|
B|-000000000000000---0000---0000---------------------|

C|---------------------------------------------------|
R|---X---X---X---X-----------------------------------|
H|---------------------------------------------------|
S|---0---0---0---0-----------------------------------|
B|-000000000000000-----------------------------------|

Solo Bridge

Kill those...

C|-X-------------------X-----------------------------|
H|------X-X-X-X-X-X----------X-X-X-X-X-X-------------|
S|--------0-------0------------0-------0-------------|
B|-0----------0-0------0-----------0-0---------------|

C|-X-------------------X-----------------------------|
H|------X-X-X-X-X-X----------X-X-X-X-X-X-------------|
S|--------0-------0------------0-------0-------------|
B|-0----------0-0------0-----------0-0---------------|

C|-X------X------------X-----------------------------|
H|------X---X-X-X-X----------X-X-X-X-X-X-------------|
S|--------0-------0------------0-------0-------------|
B|-0----------0-0------0----------0-0----------------|

C|-X-------------------X---------X-X-----------------|
H|------X-X-X-X-X-X----------X-X---------------------|
S|--------0-------0------------0---------------------|
B|-0----------0-0------0---------0-0-----------------|

Solo

C|-X-------------------X-----------------------------|
H|------X-X-X-X-X-X----------X-X-X-X-X-X-------------|
S|--------0-------0------------0-------0-------------|
B|-0----------0-0------0-----------0-0---------------|

C|-X-------------------X-----------------------------|
H|------X-X-X-X-X-X----------X-X-X-X---X-------------|
S|--------0-------0------------0---0---0-------------|
B|-0----------0-0------0-------------0---------------|

C|-X-------------------X-----------------------------|
H|------X-X-X-X-X-X----------X-X-X-X-X-X-------------|
S|--------0-------0------------0-------0-------------|
B|-0----------0-0------0-----------0-0---------------|

C|-X-------------------X-----------------------------|
H|------X-X-X-X-X-X----------X-X-X-------------------|
S|--------0-------0------------0---000---------------|
B|-0----------0-0------0-----------------------------|

Verse 3

Death to Britney Spears...

                                                  (Sizzling Hi-Hats)

C|-X-------------------------------------------------|
H|------X-X-X-X-X-X----X-----X-X-X-X-X-X-------------|
S|--------0-------0------------0-------0-------------|
B|-0----------0-0------0-----------0-0---------------|


C|-X-------------------------------------------------|
H|------X-X-X-X-X-X----X-----X-X-X-------------------|
S|--------0-------0------------0---000---------------|
B|-0----------0-0------0-----------------------------|

C|-X-------------------------------------------------|
H|------X-X-X-X-X-X----X-----X-X-X-X-X-X-------------|
S|--------0-------0------------0-------0-------------|
B|-0----------0-0------0-----------0-0---------------|

C |-X------------------------------------------------|
H |------X-X-X-X-X-X----X-----X-X-X------------------|
S |--------0-------0------------0---0----------------|
B |-0----------0-0------0------------0---------------|
1T|-----------------------------------0--------------|

Bridge
                                                    (Clozed Hi-Hats)

50 Cents a fag...

C|-X---X----------X---X------------------------------|
H|---X---X-X-X------X---X-X-X------------------------|
S|-----0-----0--------0-----0------------------------|
B|-0-----0-0------------0-0--------------------------|

C|-X---X----------X---X------------------------------|
H|---X---X-X-X------X---X-X-X------------------------|
S|-----0-----0--------0-----0------------------------|
B|-0-----0-0------------0-0--------------------------|

Chorus

Death to all but Metal...

C|--------------------------X------X-----------------|
R|---X---X---X---X----XXXX---XXXX--------------------|
H|---------------------------------------------------|
S|---0---0---0---0----------0------0-----------------|
B|-000000000000000----0000---0000--------------------|

C|--------------------------X------X-----------------|
R|---X---X---X---X----XXXX---XXXX--------------------|
H|---------------------------------------------------|
S|---0---0---0---0----------0------0-----------------|
B|-000000000000000---0000---0000---------------------|

C|---------------------------------------------------|
R|---X---X---X---X----X-X----------------------------|
H|---------------------------------------------------|
S|---0---0---0---0-----------------------------------|
B|-000000000000000----0-0----------------------------|

C|--------------------------------X-X----------------|
H|---------------------------------------------------|
S|---------------------------------------------------|
B|-000-000-000-00000-000-00000----0-0----------------|
comments
We did not receive enough feedback on this tab! Please rate:
print report bad tab
1 2 3 4 5
I want to post or [tab]
guest
You may want to rate the tab now too:
select rating
Please do not post tabs as comments. Select "correction" instead!