Oops, an error
Loading. Please wait.

Death To All But Metal Tab

version 1
version 1

Whole song

Interactive

86,955 views 87 this week
8 commentsread comments
1 2 3 4 5
accurate
x 17
add to favorites
launch autoscroll
font size
0
reset
how to read this tab
guitar tuner
Tab Pro tools
  • play this tab
  • loop segment
  • change instrument
  • show fretboard
  • metronome
×
Best way to learn
"Death To All But Metal"
Autoscroll
slow
fast
+/-
esc
set tempo
stop
Contributor
Steel Panther
Death To All But Metal
Tuned to E flat

Intro:
E-----------------------------------------------------------------------|
B-----------------------------------------------------------------------|
G---------5----------5----------5----------5----------5--7--8-----------|
D---------5----------5----------5----------5----------5--7--8-----------|
A--0000---3---0000---3---0000---3---0000---3---0000---3--5--6-----------|
E-----------------------------------------------------------------------|


Main Riff Played through verse:
E-----------------------------------------------------------------------|
G-----------------------------------------------------------------------|
D-----------------------------------------------------------------------|
A-----------------------------------------------------------------------|
E----0 0 3 5 6 5 3 0-----------------------5 5 6 7 6 5 3 0--------------|


Pre Chorus:
E-----------------------------------------------------------------------|
B-----------------------------------------------------------------------|
G---1---------5----7----------------------------------------------------|
D---2----5----5----7----------------------------------------------------|
A---2----5----3----5----------------------------------------------------|
E---0----3--------------------------------------------------------------|

Chorus:
E-----------------------------------------------------------------------|
B-----------------------------------------------------------------------|
G---8--7--5----------5----------5----------5----------5-----------------|
D---8--7--5----------5----------5----------5----------5-----------------|
A---6--5--3---0000---3---0000---3---0000---3---0000---3-----------------|
E-----------------------------------------------------------------------|

Chorus Continued:
Riff that brings you back into the verse
E-----------------------------------------------------------------------|
B-----------------------------------------------------------------------|
G---5--7--8-------------------------------------------------------------|
D---5--7--8-------------------------------------------------------------|
A---3--5--6-------------------------------------------------------------|
E-----------------------------------------------------------------------|

2nd pre chorus changes
E-----------------------------------------------------------------------|
B-----------------------------------------------------------------------|
G---1---------5----7----------------------------------------------------|
D---2----5----5----7-------14--12------12-------12----------------------|
A---2----5----3----5---------------14-------14-------12---10------------|
E---0----3--------------------------------------------------------------|

Chorus:
E-----------------------------------------------------------------------|
B-----------------------------------------------------------------------|
G---8--7--5----------5----------5----------5----------5-----------------|
D---8--7--5----------5----------5----------5----------5-----------------|
A---6--5--3---0000---3---0000---3---0000---3---0000---3-----------------|
E-----------------------------------------------------------------------|

Chorus Continued:
Riff that brings you into the BRIDGE
E-------------------------------------------------------------------------|
B-------------------------------------------------------------------------|
G---8--7--5--7--5---------------------------------------------------------|
D---8--7--5--7--5--5------------------------------------------------------|
A---6--5--3--5--3--5------------------------------------------------------|
E------------------3------------------------------------------------------|

Bridge:
E------------------------------------------------------------------------|
B------------------------------------------------------------------------|
G------4---9---9--------4--5-----8--7------------------------------------|
D--4---4---9---9----4---4--5--5--8--7------------------------------------|
A--4---2---7---6----4---2--3--5--6--5------------------------------------|
E--2----------------2---------3------------------------------------------|

Into the solo
 I havent had time to tab the solo yet but i will at some point :-)
Any problems or questions feel free to email:kraigeyroxx@hotmail.co.uk
comments
print report bad tab
8 comments total. Showing first comments.
+1 reply
metalrockerdude wrote on June 6 2009, 02:59 pm

not bad dude cant wait for the solo tab

-1 reply
fitzpatrick666 wrote on June 13 2009, 02:50 pm

Tail to the main riff should be

A------------------------------------------------7--------
E----0 0 3 5 6 5 3 0-----------------------5 5 6 6 5 3 0

+2 reply
fitzpatrick666 wrote on June 13 2009, 02:54 pm

Sorry the one above decided to go out of line

A-----------------------------------7----------------------------------|
E----0 0 3 5 6 5 3 0-----------5-5-6-6-5-3-0--------------|

I want to post or [tab]
guest
You may want to rate the tab now too:
select rating
Please do not post tabs as comments. Select "correction" instead!