Oops, an error
Loading. Please wait.

Death To All But Metal Bass Tab

version 2
version 2

Whole song

Interactive

10,422 views 18 this week
3 commentsread comments
1 2 3 4 5
x 7
add to favorites
launch autoscroll
font size
0
reset
guitar tuner
Autoscroll
slow
fast
+/-
esc
set tempo
stop
Help us to improve Ultimate-Guitar.com Take our survey!
×
Author
Tuning
D# G# C# F# A# D#
Verse/Solo
Eb|------------------------------------|
Db|-------------------------------2----|
Ab|---------------------------0-01-10--|
Eb|0-035653-0-035653-0-035653--------3-|

Pre-Chorus
Eb|----------------|
Db|----------------|
Ab|--------3---5---|
Eb|0---3-----------|

Chorus
Eb|-----------------------------|
Db|-----------------------------|
Ab|6-53-00003-00003-00003-00003-|
Eb|-----------------------------|

Bridge
Eb|-------------------|
Db|-------------------|
Ab|--2-7-6---2-3---65-|
Eb|2-------2-----3----|
Suggest correction
comments
print report bad tab
3 comments total.
0 reply
Craig-Bass1995 177 Dec 20, 2009 04:29 PM

Sounds perfect to me! Good job, mate!

0 reply
WASP_God 145 Aug 18, 2011 02:46 PM

perfect mate! next we need eyes of a panther

0 reply
ronhoward 125 Dec 16, 2011 04:46 PM

Thanks for the comments. I'll get to working on Eyes Of A Panther this weekend.

guest
You may want to rate the tab now too:
select rating
Wanna post a correction for this tab? Suggest correction