Oops, an error
Loading. Please wait.

Death To All But Metal Bass Tab

version 3
version 3

Whole song

Interactive

1,587 views 15 this week
no commentswrite comment
1 2 3 4 5
excellent!
x 3
add to favorites
launch autoscroll
font size
0
reset
guitar tuner
Autoscroll
slow
fast
+/-
esc
set tempo
stop
Help us to improve Ultimate-Guitar.com Take our survey!
×
Author
Difficulty
intermediate
Death to all but metal bass tab
Tune down a half step to D#,G#,C#,F# (low to high)

\ = slide down
~ = let ring

No bass on intro

Verse
|---------------------------------------------------------------|
|------------------------------------------------------2--------|
|---------0-1-0----------0-1-0----------0-1-0----0-1-2---1-0----|
|--0--0-3-------3-0--0-3-------3-0--0-3-------3--------------3--|

Pre-chorus
|------------------------------|
|------------------------------|
|----------------3~-----5~-----|
|--0~-----3~-------------------|

Chorus
|-----------------|
|-----------------|
|--6~----5--3-----|
|-----------------|

|--------------------------------------------------|
|--------------------------------------------------|
|--0-0-0-0-3---0-0-0-0-3---0-0-0-0-3---0-0-0-0-3---|
|--------------------------------------------------|
(the open G#'s are pretty quick so if you can't play all 4 of them you can get away with 
just playing 3, but it sounds much cooler if you play all 4 along with the guitar)
2nd Verse is the same as the 1st


After the 2nd pre-chorus
This riff is ripped off from Seek & Destroy by Metallica so I'll just tab it how I play 
that (:
|--9-7---7--------------------------|
|------9---9-8-7-5------------------|
|------------------7-5---5----------|
|----------------------7---7-6-5-3--|


2nd chorus is the same as the 1st


Bridge (kill those f*ckin f*ck heads...)
|---------------------------------------------------------------|
|--------------------------------2--2-2-2-2-2-2-----------------|
|-----------------2--2-2-2-2-2-2----------------2--2-2-2-2-2-2--|
|--2--2-2-2-2-2-2-----------------------------------------------|

|-----------------------------------------------------------|
|-----------------------------------------------------------|
|-----------------2--2-2-2-2-2-2-3--3-3-3-3-3-3-------6--5--|
|--2--2-2-2-2-2-2-------------------------------3--3--------|

Satchel's bitchin' Solo
|------------------------------------------------------2--------|
|---------0-1-0----------0-1-0----------0-1-0----0-1-2---1-0----|
|--0--0-3-------3-0--0-3-------3-0--0-3-------3--------------3--|
|---------------------------------------------------------------|
(same as verse, but everything is moved one string higher)


3rd verse same as 1st verse & 2nd verse


Last chorus
Same as the others but on the 3rd descending riff it goes like:
|--------------------|
|--------------------|
|--6~---5--3---5-5---|
|--------------------|

The last two notes you hear are
|--------|
|--------|
|--------|
|--5-5\--|
(that last slide doesn't really go to any note, just slide down to the first fret and 
then mute the string I guess)


Listen to the song for timings and how many times you play each riff etc..

Any questions or ideas for improvement? Post a comment!
Suggest correction
Give kudos to tab author, rate the tab!
1 2 3 4 5
comments
print report bad tab
guest
You may want to rate the tab now too:
select rating
Please do not post tabs as comments. Select "correction" instead!