Oops, an error
Loading. Please wait.

Death To All But Metal Tab

version 3
version 3

Whole song

Interactive

10,325 views 6 this week
8 commentsread comments
1 2 3 4 5
accurate
x 4
add to favorites
launch autoscroll
font size
0
reset
how to read this tab
guitar tuner
Autoscroll
slow
fast
+/-
esc
set tempo
stop
Help us to improve Ultimate-Guitar.com Take our survey!
×
Contributor
v3xify 205
h: Hammer On
p: Pull Off
t: Tap
/: Slide
.: Palm Mute
*: Harmonic

Note: There are a lot of backing solos in this song that I didn't tab out. tab out. 
mostly just trills and shit, and if you really care, you can figure them out. BUT I DO HAVE 
MAIN SOLO!! lol

-==INTRO========


Eb|-------------|
Bb|-------------|
Gb|----------5--|
Db|----------5--|
Ab|--0-0-0-0-3--|  x 4
Eb|-------------|
   PM.......

|-------------------------|
|-------------------------|
|----------5-----7-----8--|
|----------5-----7-----8--|
|--0-0-0-0-3-0-0-5-0-0-6--|
|-------------------------|
PM........   ...   ...

(This part is the main riff)
|-------------------------|---------------------|
|-------------------------|---------------------|
|-------------------------|---------------------|
|-------------------------|---------------------|
|---------------------x3--|---------------------|  Play twice
|--0---0-3-5-6-5-3--------|----5---5-6-7-6-5-3--|

This is the way I personally play the main Riff, But Satchel plays it like this:

|-------------------------|---------------------|
|-------------------------|---------------------|
|-------------------------|---------------------|
|-------------------------|---------------------|
|----------0-1-0------x3--|----0---0-1-2-1-0----|  Play twice
|--0---0-3-------3--------|------------------3--|

Same notes and stuff, Just transfered down to the Ab String.


-==VERSE========


(Same as the main riff, just on the E string only)
|-------------------------|---------------------|
|-------------------------|---------------------|
|-------------------------|---------------------|
|-------------------------|---------------------|
|---------------------x3--|---------------------|  x 2
|--0---0-3-5-6-5-3--------|----5---5-6-7-6-5-3--|


-==BRIDGE========


(Let each chord ring- Listen to the song, lol)
|-----------------|
|-----------------|
|----------5---7--|
|--2---5---5---7--|
|--2---5---3---5--|
|--0---3----------|

While that is playing, a second guitar is playing a variation of Sweet Child of Mine by
n' Roses in the background:

|--------------15--14-----|
|-----14-13-12---12---12--|
|--12---------------------|
|-------------------------|
|-------------------------|  x 4
|-------------------------|


-==CHORUS========


|-----------|----------------|
|-----------|----------------|
|-----------|----------5-----|
|--8---7-5--|----------5-----|
|--8---7-5--|--0-0-0-0-3--x4-|  x 2
|--6---5-3--|----------------|
               PM.....

|-----------|------------------------|
|-----------|------------------------|
|-----------|---------5-----7-----8--|
|--8---7-5--|---------5-----7-----8--|
|--8---7-5--|-0-0-0-0-3-0-0-5-0-0-6--|
|--6---5-3--|------------------------|
              PM.....   ...   ...


-==VERSE========


|-------------------------|---------------------|
|-------------------------|---------------------|
|-------------------------|---------------------|
|-------------------------|---------------------|
|---------------------x3--|---------------------|  x 2
|--0---0-3-5-6-5-3--------|----5---5-6-7-6-5-3--|


-==BRIDGE========


|-----------------|
|-----------------|
|----------5---7--|
|--2---5---5---7--|
|--2---5---3---5--|
|--0---3----------|

or

|--------------15--14-----|
|-----14-13-12---12---12--|
|--12---------------------|
|-------------------------|
|-------------------------|  x 4
|-------------------------|


-==INTERLUDE========


Variation of Metallica's Seek and Destroy:
|-------------------------|
|-------------------------|
|--9----7---7-------------|
|---------9---9-8-7-5-----|
|-------------------------|  x 2
|-------------------------|


-==CHORUS========


|-----------|----------------|
|-----------|----------------|
|-----------|----------5-----|
|--8---7-5--|----------5-----|
|--8---7-5--|--0-0-0-0-3--x4-|  x 2
|--6---5-3--|----------------|
               PM.....

|-----------|------------------------|
|-----------|------------------------|
|-----------|---------5-----7-----8--|
|--8---7-5--|---------5-----7-----8--|
|--8---7-5--|-0-0-0-0-3-0-0-5-0-0-6--|
|--6---5-3--|------------------------|
              PM.....   ...   ...


-==BRIDGE========

Quick interlude:
|---------------|
|---------------|
|---------------|
|--8-7-5-7-5----|
|--6-5-3-5-3-5--|
|------------3--|


|-----------------|
|-----------------|
|----------5---7--|
|--2---5---5---7--|
|--2---5---3---5--|  x 2
|--0---3----------|
"Kill those fucking fuckheads" part.

|-------------|
|-------------|
|-------------|
|--5----8--7--|
|--3----6--5--|
|-------------|


-==SOLO========

Nobody gets this right...

Bendy Part:
|-------------------|
|-------------------|
|--19b-19b-19b-18~~-|
|-------------------|
|-------------------|
|-------------------|

Shredy Part:
|------17h19p17----17------------------------------------------------------|
|-17h20---------20----20p17--20p17-----17----------------------------------|
|--------------------------20-----20p17--20p17---20p17------17----------17~|
|---------------------------------------------19-------19h17--19h17---19---|
|-------------------------------------------------------------------19-----|
|--------------------------------------------------------------------------|

Tappy Part:
(Hammer ons and Pull offs, Your Right Hand is not used)
|-----------------------------------------------|
|-----t---t---t---t---t---t---t---t---t---t-----|
|--5p0-7p0-8p0-9p0-8p0-7p0-5p0-6p0-7p0-8p0-9/5--|
|-----------------------------------------------|
|-----------------------------------------------|
|-----------------------------------------------|

Another Shredy Part:
|--19b----17------------------------------------------------------------|
|------------20h17-------------20b---17---------17----------------------|
|------------------20h19p17-------------19p17-----19p17-----------------|
|---------------------------19----------------19---------19p17----------|
|--------------------------------------------------------------19b-19b--|
|-----------------------------------------------------------------------|

Backing track for the Solo is the Verse.

-==VERSE========


|-------------------------|---------------------|
|-------------------------|---------------------|
|-------------------------|---------------------|
|-------------------------|---------------------|
|---------------------x3--|---------------------|  x 2
|--0---0-3-5-6-5-3--------|----5---5-6-7-6-5-3--|


-==BRIDGE========


|-----------------|
|-----------------|
|----------5---7--|
|--2---5---5---7--|
|--2---5---3---5--|
|--0---3----------|

or

|--------------15--14-----|
|-----14-13-12---12---12--|
|--12---------------------|
|-------------------------|
|-------------------------|  x 4
|-------------------------|


-==CHORUS========


|-----------|----------------|
|-----------|----------------|
|-----------|----------5-----|
|--8---7-5--|----------5-----|
|--8---7-5--|--0-0-0-0-3--x4-|  x 2
|--6---5-3--|----------------|
               PM.....

|-----------|
|-----------|
|-----------|
|--8---7-5--|
|--8---7-5--| Let the last chord ring---
|--6---5-3--|

|------------|
|------------|
|--------5*--|
|-----7*-----| Backup Guitar doing Natural Harmonics..
|--5*--------|
|------------|

|--------|
|--------|
|--------|
|--5--5--|
|--5--5--| Concert style outro.
|--3--3--|

Have fun! lol
comments
print report bad tab
8 comments total. Showing first comments.
-1 reply
Ratt n' Roll 528 wrote on January 20 2010, 05:26 pm

Everything looks good, except the main riff is wrong, I prefer to play it the way version 2 tabed is tabbed(But that's just me), but the rest looks solid.

0 reply
metal head 1 812 wrote on February 23 2010, 12:58 pm

i dont understand the tappy part where do u tap with ur right hand

thanks

-1 reply
v3xify 205 wrote on July 9 2010, 07:42 pm

You dont do anything with your right hand, its hammer ons and pull offs. But its Tappy so I named it the Tappy part.

I want to post or [tab]
guest
You may want to rate the tab now too:
select rating
Please do not post tabs as comments. Select "correction" instead!