Oops, an error
Loading. Please wait.

Death To All But Metal Tab

version 4
version 4

Whole song

Interactive

52,622 views 36 this week
5 commentsread comments
1 2 3 4 5
x 24
add to favorites
launch autoscroll
font size
0
reset
how to read this tab
guitar tuner
Autoscroll
slow
fast
+/-
esc
set tempo
stop
Help us to improve Ultimate-Guitar.com Take our survey!
×
Tuning
D# G# C# F# A# D#
Please scroll down for lead sections.

Rhythm Section

[Intro]
        
D#|------------------------------|------------------------------|
A#|------------------------------|------------------------------|
F#|-----------5-------------5----|-----------5-------------5----|
C#|-----------5-------------5----|-----------5-------------5----|
G#|--0-0-0-0-------0-0-0-0-------|--0-0-0-0-------0-0-0-0-------|
D#|------------------------------|------------------------------|


[Main Riff]                         
 
D#|-----------------------------|--------------------------|
A#|-----------------------------|--------------------------|
F#|-----------5-----7-----8-----|--------------------------|
C#|-----------5-----7-----8-----|--------------------------|
G#|--0-0-0-0-----0-----0-----2--|--L--2-----0--1--0-----2--|
D#|--------------------------0--|--L--0--3-----------3--0--|


     E  E  E  E  E  E  E  E     E  E  E  E  E  E  E  E   
D#|--------------------------|--------------------------|
A#|--------------------------|--------------------------|
F#|--------------------------|--------------------------|
C#|--------------------------|--------------------------|
G#|--L--2-----0--1--0-----2--|--L--2-----0--1--0-----0--|
D#|--L--0--3-----------3--0--|--L--0--3-----------3-----|


     E  E  E  E  E  E  E  E   
D#|--------------------------|
A#|--------------------------|
F#|--------------------------|
C#|-----------2--------------|
G#|--L--1--2-----1--0-----2--|
D#|--------------------3--0--|


     E  E  E  E  E  E  E  E     E  E  E  E  E  E  E  E   
D#|--------------------------|--------------------------|
A#|--------------------------|--------------------------|
F#|--------------------------|--------------------------|
C#|--------------------------|--------------------------|
G#|--L--2-----0--1--0-----2--|--L--2-----0--1--0-----0--|
D#|--L--0--3-----------3--0--|--L--0--3-----------3-----|


     E  E  E  E  E  E  E  E     E  E  E  E  E  E  E  E   
D#|--------------------------|--------------------------|
A#|--------------------------|--------------------------|
F#|--------------------------|--------------------------|
C#|-----------2--------------|--------------------------|
G#|--L--1--2-----1--0-----2--|--L--2-----0--1--0-----2--|
D#|--------------------3--0--|--L--0--3-----------3--0--|


     E  E  E  E  E  E  E  E     E  E  E  E  E  E  E  E   
D#|--------------------------|--------------------------|
A#|--------------------------|--------------------------|
F#|--------------------------|--------------------------|
C#|--------------------------|--------------------------|
G#|--L--2-----0--1--0-----2--|--L--2-----0--1--0-----0--|
D#|--L--0--3-----------3--0--|--L--0--3-----------3-----|


     E  E  E  E  E  E  E  E     E  E  E  E  E  E  E  E   
D#|--------------------------|--------------------------|
A#|--------------------------|--------------------------|
F#|--------------------------|--------------------------|
C#|-----------2--------------|--------------------------|
G#|--L--1--2-----1--0-----2--|--L--2-----0--1--0-----2--|
D#|--------------------3--0--|--L--0--3-----------3--0--|


     E  E  E  E  E  E  E  E     E  E  E  E  E  E  E  E   
D#|--------------------------|--------------------------|
A#|--------------------------|--------------------------|
F#|--------------------------|--------------------------|
C#|--------------------------|--------------------------|
G#|--L--2-----0--1--0-----2--|--L--2-----0--1--0-----0--|
D#|--L--0--3-----------3--0--|--L--0--3-----------3-----|


     E  E  E  E  E  E  E  E     H.           E  E     H.           E  E   
D#|--------------------------|---------------------|---------------------|
A#|--------------------------|---------------------|---------------------|
F#|--------------------------|---------------------|---------------------|
C#|-----------2--------------|---------------------|------------------5--|
G#|--L--1--2-----1--0-----2--|--L------------L--5--|--L------------L--3--|
D#|--------------------3--0--|--L------------L--3--|--L------------L-----|


     H.           E  E     H.           E  E     H        Q    Q     
D#|---------------------|---------------------|---------------------|
A#|---------------------|---------------------|---------------------|
F#|---------------------|------------------x--|--8--------7----5----|
C#|--L------------L--7--|--L------------L--x--|--8--------7----5----|
G#|--L------------L--5--|--L------------L--x--|---------------------|
D#|---------------------|---------------------|---------------------|

       
     E  E  E  Q    E  E  E  Q       E  E  E  Q    E  E  E  Q     
D#|------------------------------|------------------------------|
A#|------------------------------|------------------------------|
F#|-----------5-------------5----|-----------5-------------5----|
C#|-----------5-------------5----|-----------5-------------5----|
G#|--0-0-0-0-------0-0-0-0-------|--0-0-0-0-------0-0-0-0-------|
D#|------------------------------|------------------------------|


                             
     H        Q    Q       E  E  E  Q    E  E  E  Q     
D#|---------------------|------------------------------|
A#|---------------------|------------------------------|
F#|--8--------7----5----|-----------5-------------5----|
C#|--8--------7----5----|-----------5-------------5----|
G#|---------------------|--0-0-0-0-------0-0-0-0-------|
D#|---------------------|------------------------------|

                                                     
     E  E  E  Q    E  E  E  Q       H        Q    Q       E  E  E  E  E  E  E  E   
D#|------------------------------|---------------------|--------------------------|
A#|------------------------------|---------------------|--------------------------|
F#|-----------5-------------5----|--8--------7----5----|--------5-----7-----8-----|
C#|-----------5-------------5----|--8--------7----5----|--------5-----7-----8-----|
G#|--0-0-0-0-------0-0-0-0-------|---------------------|--0--0-----0-----0-----2--|
D#|------------------------------|---------------------|-----------------------0--|


     E  E  E  E  E  E  E  E     E  E  E  E  E  E  E  E   
D#|--------------------------|--------------------------|
A#|--------------------------|--------------------------|
F#|--------------------------|--------------------------|
C#|--------------------------|--------------------------|
G#|--L--2-----0--1--0-----2--|--L--2-----0--1--0-----2--|
D#|--L--0--3-----------3--0--|--L--0--3-----------3--0--|


     E  E  E  E  E  E  E  E     E  E  E  E  E  E  E  E   
D#|--------------------------|--------------------------|
A#|--------------------------|--------------------------|
F#|--------------------------|--------------------------|
C#|--------------------------|-----------2--------------|
G#|--L--2-----0--1--0-----0--|--L--1--2-----1--0-----2--|
D#|--L--0--3-----------3-----|--------------------3--0--|


     E  E  E  E  E  E  E  E     E  E  E  E  E  E  E  E   
D#|--------------------------|--------------------------|
A#|--------------------------|--------------------------|
F#|--------------------------|--------------------------|
C#|--------------------------|--------------------------|
G#|--L--2-----0--1--0-----2--|--L--2-----0--1--0-----2--|
D#|--L--0--3-----------3--0--|--L--0--3-----------3--0--|


     E  E  E  E  E  E  E  E     E  E  E  E  E  E  E  E     H.           E  E   
D#|--------------------------|--------------------------|---------------------|
A#|--------------------------|--------------------------|---------------------|
F#|--------------------------|--------------------------|---------------------|
C#|--------------------------|-----------2--------------|---------------------|
G#|--L--2-----0--1--0-----0--|--L--1--2-----1--0-----2--|--L------------L--5--|
D#|--L--0--3-----------3-----|--------------------3--0--|--L------------L--3--|


     H.           E  E     H.           E  E     H.           E  E   
D#|---------------------|---------------------|---------------------|
A#|---------------------|---------------------|---------------------|
F#|---------------------|---------------------|------------------x--|
C#|------------------5--|--L------------L--7--|--L------------L--x--|
G#|--L------------L--3--|--L------------L--5--|--L------------L--x--|
D#|--L------------L-----|---------------------|---------------------|


     E  E  E  E  E  E  E   E     E  E  E  E  E  E  E   E     H        Q    Q     
D#|---------------------------|---------------------------|---------------------|
A#|---------------------------|---------------------------|---------------------|
F#|--9--7-----7---------------|--9--7-----7---------------|--8--------7----5----|
C#|--------9-----9--8--7------|--------9-----9--8--7------|--8--------7----5----|
G#|-----------------------10--|-----------------------10--|---------------------|
D#|---------------------------|---------------------------|---------------------|


   
D#|------------------------------|------------------------------|
A#|------------------------------|------------------------------|
F#|-----------5-------------5----|-----------5-------------5----|
C#|-----------5-------------5----|-----------5-------------5----|
G#|--0-0-0-0-------0-0-0-0-------|--0-0-0-0-------0-0-0-0-------|
D#|------------------------------|------------------------------|

     
     H        Q    Q       E  E  E  Q    E  E  E  Q     
D#|---------------------|------------------------------|
A#|---------------------|------------------------------|
F#|--8--------7----5----|-----------5-------------5----|
C#|--8--------7----5----|-----------5-------------5----|
G#|---------------------|--0-0-0-0-------0-0-0-0-------|
D#|---------------------|------------------------------|


  |--3--|       |--3--|                                                        
  E  E  E  Q    E  E  E  Q       H        Q    Q       Q     E  E  Q     Q     
D#|------------------------------|---------------------|-------------------------|
A#|------------------------------|---------------------|-------------------------|
F#|-----------5-------------5----|--8--------7----5----|--8s----7--5--7s----5----|
C#|-----------5-------------5----|--8--------7----5----|--8s----7--5--7s----5----|
G#|--0-0-0-0-------0-0-0-0-------|---------------------|-------------------------|
D#|------------------------------|---------------------|-------------------------|


     H.           E  E     H.           E  E     H.           E  E   
D#|---------------------|---------------------|---------------------|
A#|---------------------|---------------------|---------------------|
F#|------------------4--|--L------------L--9--|--L------------L--4--|
C#|--4------------L--4--|--L------------L--9--|--L------------L--4--|
G#|--4------------L--2--|--L------------L--7--|--L------------L--2--|
D#|--2------------L-----|---------------------|---------------------|


     H.           E  E     H.           E  E     H.           E  E   
D#|---------------------|---------------------|---------------------|
A#|---------------------|---------------------|---------------------|
F#|--L------------L-----|------------------4--|--L------------L--5--|
C#|--L------------L--4--|--L------------L--4--|--L------------L--5--|
G#|--L------------L--4--|--L------------L--2--|--L------------L--3--|
D#|------------------2--|--L------------L-----|---------------------|


     H.           E  E     Q.     E  E  E  E  E     E  E  E  E  E  E  E  E   
D#|---------------------|------------------------|--------------------------|
A#|---------------------|------------------------|--------------------------|
F#|--L------------L-----|---------8--x--7--x-----|--------------------------|
C#|--L------------L--5--|--L------8--x--7--x-----|--------------------------|
G#|--L------------L--5--|--L------6--x--5--x--2--|--L--2-----0--1--0-----2--|
D#|------------------3--|--L------------------0--|--L--0--3-----------3--0--|


     E  E  E  E  E  E  E  E     E  E  E  E  E  E  E  E   
D#|--------------------------|--------------------------|
A#|--------------------------|--------------------------|
F#|--------------------------|--------------------------|
C#|--------------------------|--------------------------|
G#|--L--2-----0--1--0-----2--|--L--2-----0--1--0-----0--|
D#|--L--0--3-----------3--0--|--L--0--3-----------3-----|


     E  E  E  E  E  E  E  E     E  E  E  E  E  E  E  E   
D#|--------------------------|--------------------------|
A#|--------------------------|--------------------------|
F#|--------------------------|--------------------------|
C#|-----------2--------------|--------------------------|
G#|--L--1--2-----1--0-----2--|--L--2-----0--1--0-----2--|
D#|--------------------3--0--|--L--0--3-----------3--0--|


     E  E  E  E  E  E  E  E     E  E  E  E  E  E  E  E   
D#|--------------------------|--------------------------|
A#|--------------------------|--------------------------|
F#|--------------------------|--------------------------|
C#|--------------------------|--------------------------|
G#|--L--2-----0--1--0-----2--|--L--2-----0--1--0-----0--|
D#|--L--0--3-----------3--0--|--L--0--3-----------3-----|


     E  E  E  E  E  E  E  E     E  E  E  E  E  E  E  E   
D#|--------------------------|--------------------------|
A#|--------------------------|--------------------------|
F#|--------------------------|--------------------------|
C#|-----------2--------------|--------------------------|
G#|--L--1--2-----1--0-----2--|--L--2-----0--1--0-----2--|
D#|--------------------3--0--|--L--0--3-----------3--0--|


     E  E  E  E  E  E  E  E     E  E  E  E  E  E  E  E   
D#|--------------------------|--------------------------|
A#|--------------------------|--------------------------|
F#|--------------------------|--------------------------|
C#|--------------------------|--------------------------|
G#|--L--2-----0--1--0-----2--|--L--2-----0--1--0-----0--|
D#|--L--0--3-----------3--0--|--L--0--3-----------3-----|


     E  E  E  E  E  E  E  E     E  E  E  E  E  E  E  E   
D#|--------------------------|--------------------------|
A#|--------------------------|--------------------------|
F#|--------------------------|--------------------------|
C#|-----------2--------------|--------------------------|
G#|--L--1--2-----1--0-----2--|--L--2-----0--1--0-----2--|
D#|--------------------3--0--|--L--0--3-----------3--0--|


     E  E  E  E  E  E  E  E     E  E  E  E  E  E  E  E   
D#|--------------------------|--------------------------|
A#|--------------------------|--------------------------|
F#|--------------------------|--------------------------|
C#|--------------------------|--------------------------|
G#|--L--2-----0--1--0-----2--|--L--2-----0--1--0-----0--|
D#|--L--0--3-----------3--0--|--L--0--3-----------3-----|


     E  E  E  E  E  E  E  E     H.           E  E     H.           E  E   
D#|--------------------------|---------------------|---------------------|
A#|--------------------------|---------------------|---------------------|
F#|--------------------------|---------------------|---------------------|
C#|-----------2--------------|---------------------|------------------5--|
G#|--L--1--2-----1--0-----2--|--L------------L--5--|--L------------L--3--|
D#|--------------------3--0--|--L------------L--3--|--L------------L-----|


     H.           E  E     H.           E  E     H        Q    Q     
D#|---------------------|---------------------|---------------------|
A#|---------------------|---------------------|---------------------|
F#|---------------------|------------------x--|--8--------7----5----|
C#|--L------------L--7--|--L------------L--x--|--8--------7----5----|
G#|--L------------L--5--|--L------------L--x--|---------------------|
D#|---------------------|---------------------|---------------------|

   
     E  E  E  Q    E  E  E  Q       E  E  E  Q    E  E  E  Q     
D#|------------------------------|------------------------------|
A#|------------------------------|------------------------------|
F#|-----------5-------------5----|-----------5-------------5----|
C#|-----------5-------------5----|-----------5-------------5----|
G#|--0--0--0-------0--0--0-------|--0-0-0-0-------0-0-0-0-------|
D#|------------------------------|------------------------------|


                          
D#|---------------------|------------------------------|
A#|---------------------|------------------------------|
F#|--8--------7----5----|-----------5-------------5----|
C#|--8--------7----5----|-----------5-------------5----|
G#|---------------------|--0-0-0-0-------0-0-0-0-------|
D#|---------------------|------------------------------|


  |--3--|       |--3--|                                                    
  E  E  E  Q    E  E  E  Q       H        Q    Q       E  H        Q.      
D#|------------------------------|---------------------|---------------------|
A#|------------------------------|---------------------|---------------------|
F#|-----------5-------------5----|--8--------7----5----|--7--7--------L------|
C#|-----------5-------------5----|--8--------7----5----|--7--7--------L------|
G#|--0-0-0-0-------0-0-0-0-------|---------------------|--5--5--------L------|
D#|------------------------------|---------------------|---------------------|


     W                   W                   E  Q     Q    Q.      
D#|-------------------|-------------------|-----------------------|
A#|-------------------|-------------------|-----------------------|
F#|--L----------------|--L----------------|-----------------------|
C#|--L----------------|--L----------------|-----------------------|
G#|--L----------------|--L----------------|--7--7\----------------|
D#|-------------------|-------------------|--5--5\----------------|


     W                  
D#|-------------------||
A#|-------------------||
F#|-------------------||
C#|-------------------||
G#|-------------------||
D#|-------------------||


[Lead Section]

   Intro Solo   Dive with Whammy
                      \2/                     W   
     H.           E    E     H.           S S  E   
D#|-----------------------|-----------------------|
A#|-----------------------|-------------------15--|
F#|------------------<>0--|--L------------L-x-----|
C#|-----------------------|---------------x-------|
G#|-----------------------|-----------------------|
D#|-----------------------|-----------------------|


     H         S  S  S  S  S  S  S  S  
D#|-----------------------------------|
A#|--L--------12-15-12-15-12-17-15-12-|
F#|-----------------------------------|
C#|-----------------------------------|
G#|-----------------------------------|
D#|-----------------------------------|


      S  S  S  S  S  S  S  S  S  S  S  S  S  S  S  S  
D#|--------------------------------------------------|
A#|--12-15-17-15-12-15-17-15-12-15-17-15-12-15-12----|
F#|-----------------------------------------------14-|
C#|--------------------------------------------------|
G#|--------------------------------------------------|
D#|--------------------------------------------------|


                                         SH                        
      S  S  S S  S S  S S S S S S  S S   E      H        H         
D#|------------------------------------------|--------------------|
A#|------------------------------------------|--------------------|
F#|--11-12-11-9-11-9-------------------------|--------------------|
C#|------------------12-9-8-9-8-7------------|--------------------|
G#|-------------------------------10-9-<>7~--|--L-----------------|
D#|------------------------------------------|--------------------|


[Pre-Chorus]

     W                   W                   H        Q    E   E   
D#|-------------------|-------------------|-----------------------|
A#|-------------------|-------------------|-----------------------|
F#|-------------------|-------------------|-----------------------|
C#|-------------------|-------------------|-------------------14--|
G#|-------------------|-------------------|-----------------------|
D#|-------------------|-------------------|-----------------------|


      E   E   E   E   E   E   E   E      E   E   E   E   E   E   E   E   
D#|------------------17------15------|------------------17------15------|
A#|------17--------------------------|------17--------------------------|
F#|----------16--14------16------16--|----------16--14------16------16--|
C#|---L------------------------------|--14------------------------------|
G#|----------------------------------|----------------------------------|
D#|----------------------------------|----------------------------------|


      E   E   E   E   E   E   E   E      E   E   E   E   E   E   E   E   
D#|------------------17------15------|------------------17------15------|
A#|------17--------------------------|------17--------------------------|
F#|----------16--14------16------16--|----------16--14------16------16--|
C#|--14------------------------------|--14------------------------------|
G#|----------------------------------|----------------------------------|
D#|----------------------------------|----------------------------------|


[Bridge and Solo]

     W                    E   E  E   H          E   
D#|-------------------|----------------------------|
A#|-------------------|--14---------14~--------12--|
F#|-------------------|------11--------------------|
C#|-------------------|----------------------------|
G#|-------------------|----------------------------|
D#|-------------------|----------------------------|


      E   E  E   Q     E  E   E      E   E  E   H          E   
D#|-------------------------------|---------------------------|
A#|---L--14-----12~----L--L--17~--|--L---------17~--------16--|
F#|-------------------------------|-----16--------------------|
C#|-------------------------------|---------------------------|
G#|-------------------------------|---------------------------|
D#|-------------------------------|---------------------------|


     E   E  E   H          E       E   E  E   H          E    
D#|----------------------------|-----------------------------|
A#|--L--17-----16~--------14~--|---L--16-----14~--------12~--|
F#|----------------------------|-----------------------------|
C#|----------------------------|-----------------------------|
G#|----------------------------|-----------------------------|
D#|----------------------------|-----------------------------|


      E   E  E   H          E     E   E  E   H         E   
D#|----------------------------|--------------------------|
A#|---L--14-----12~--------13--|--L--15-----13~-----------|
F#|----------------------------|--------------------------|
C#|----------------------------|-----------------------5--|
G#|----------------------------|-----------------------5--|
D#|----------------------------|-----------------------3--|


     Q.     E  E  E  E   E      Q     E   Q.       E   E     
D#|---------------------17b--|--L----15--17b------15--17br--|
A#|--------------------------|------------------------------|
F#|---------8--x--7--x-------|------------------------------|
C#|--L------8--x--7--x-------|------------------------------|
G#|--L-----------------------|------------------------------|
D#|--L-----------------------|------------------------------|

                      
     E   E   E   Q.      Q        E   E   E   E   E   E   S  S  S  S  S  S  S  S  
D#|--L---L--15--17~------L----|------15--17--15--19--15--17-15-12----15-12-------|
A#|---------------------------|--17-------------------------------15-------15-13-|
F#|---------------------------|--------------------------------------------------|
C#|---------------------------|--------------------------------------------------|
G#|---------------------------|--------------------------------------------------|
D#|---------------------------|--------------------------------------------------|


      S  S  S  S  S  S  S  S  E   S  S  E   E    
D#|---------------------------------------------|
A#|--17-15-13----15-13--------------------------|
F#|-----------14-------14-12-----------16--17~--|
C#|--------------------------14--12-------------|
G#|---------------------------------15----------|
D#|---------------------------------------------|


      E  E  S  S S  S S  S S  S S  S S  S    S  S S  S S  S S  S S  S Q     S S  
D#|---------------------------------------|-----------------------------------x-|
A#|---------------------------------------|---------------------------------x---|
F#|---L--x--5p-0-7p-0-8p-0-9p-0-8p-0-7p-0-|--5p-0-7p-0-8p-0-9p-0-9p-0-5~----L---|
C#|---------------------------------------|-------------------------------------|
G#|---------------------------------------|-------------------------------------|
D#|---------------------------------------|-------------------------------------|


      Q.        S  S  S  S  S S  E   E      
D#|--22br------17-15------------19--19br~--|
A#|------------------17-15-13-x------------|
F#|----------------------------------------|
C#|----------------------------------------|
G#|----------------------------------------|
D#|----------------------------------------|


                                         W                         
     E   S  S  E   S  S  S  E   S  S  S  E     Q    H        Q     
D#|--L--------------------------------------|---------------------|
A#|-----15-13-----17-15---------------------|---------------------|
F#|-----------14--------17-14---------------|---------------------|
C#|----------------------------17-14-17-14--|--L------------------|
G#|-----------------------------------------|---------------------|
D#|-----------------------------------------|---------------------|



************************************

| x   Dead note
| \   Slide down
| ~   Vibrato
| b   Bend
| br  Bend release
| p   Pull-off   
| s   slide 
| L   tide note

************************************
Suggest correction
comments
print report bad tab
5 comments total. Showing first comments. show 1 bad comment
0 reply
Ratt n' Roll 205 Mar 31, 2010 03:34 PM

Awesome job, the best one on here, thanks 5 stars.

+2 reply
MisterMushroom 303 Sep 22, 2011 09:55 AM

One correction - the rhythm guitar during the solo; the riff is right, but you play it on the G# and C# strings instead of the D# and G# :)

guest
You may want to rate the tab now too:
select rating
Wanna post a correction for this tab? Suggest correction