Oops, an error
Loading. Please wait.

Eyes Of A Panther Bass Tab

version 1
version 1

Whole song

Interactive

5,501 views 15 this week
no commentswrite comment
1 2 3 4 5
please rate
add to favorites
launch autoscroll
font size
0
reset
guitar tuner
Autoscroll
slow
fast
+/-
esc
set tempo
stop
Help us to improve Ultimate-Guitar.com Take our survey!
×
Author
Difficulty
Tuning
intermediate
D# G# C# F# A# D#
Eyes of a Panther Bass Tab
(Tabbed by David Johnson.   jingostarr@live.co.uk)
f#|---------------------------------------------------------------------------------------------|
c#|------------------------------------------------------------------------------------ (INTRO--|
g#|----------------------------------------------------------------------------00---------------|
d#|-22-00-22-00-22222222-00000000-22222222-00000000------00-------------------------------------|
The 8 note sections are 16 notes but just tabbed as 8 for reference.

f#|------------------------------------------------------------|
c#|------------------------------------------------------------|(VERSE 1)
g#|--------------22222222--00000000-------------5-0-4-0-2-4-0--|
d#|-22222222---------------------------------------------------|

f#|------------------------------------------------------------------|
c#|------------------------------------------------------------------|
g#|-------------22222222--00000000--5----5---------------------------|
d#|-22222222--------------------------------5----5-------------------|

f#|------------------------------------------------------------|
c#|------------------------------------------------------------|
g#|--------------22222222--00000000-------------5-0-4-0-2-4-0--|
d#|-22222222---------------------------------------------------|

f#|--------------------------------------------------------------------------|
c#|-----------------------------------------------------        (PRECHORUS---| x2
g#|-444444444-55555555-77777777----------------------------------------------|
d#|--------------------------------------------------------------------------|

f#|---------------------------------------------------------------------------|
c#|-----------------------------------------------------    -    (CHORUS A----|  x3
g#|---------------0-0-0--------55555555---------------------------------------|
d#|-2-2-0-2-2-2--------0-0-0-------------5555-7777----------------------------|

f#|--------------------------------------------------------|
c#|--------------------------------------------------------|    -    (CHORUS B)
g#|---------------0-0-0--------2---------------------------|
d#|-2-2-0-2-2-2--------0-0-0-------------------------------|

f#|----------------------------------------------------------------------------|
c#|--------------------------------------------------------------- (PREVERSE---| x2
g#|-------------------------------------------------------00-------------------|
d#|-22222222-00000000-22222222-00000000----------00----------------------------|

(VERSE 2) -> As VERSE 1 tab above.
(PRECHORUS) -> As above.

f#|-----------------------------------------------------------------------------|
c#|--------------------------------------------------------------- (BREAKDOWN---| x4
g#|-----------0-----0-0-0-------------------------------------------------------|
d#|-2-2-0-2---2-0---------------------------------------------------------------|

f#|------------------------------------------------------------------------|
c#|--------------------------------------------------------------- (SOLO---| x4
g#|-22222222--5-5-5--0-0-0---------------5555--7777------------------------|
d#|------------------------------33333333----------------------------------|

(VERSE 3) -> As VERSE 1 tab above.
(PRECHORUS Part 1) ->As above but only play once.
f#|----------------------------------------------------------------|
c#|----------------------------------------------------------------| (PRECHORUS PART 2)
g#|-----0---2------------------------------------------------------|
d#|-22---0---------------------------------------------------------|

(CHORUS) -> As above but adding the c# on the last bar as show below in red.
f#|--------------------------------------------------------|
c#|--------------------------------------------------------|    -    (CHORUS B)
g#|---------------0-0-0--------2--5------------------------|
d#|-2-2-0-2-2-2--------0-0-0-------------------------------|

(ENDING) -> As PREVERSE to end.


Please rate my tab. Thanks =]
Suggest correction
What's this?
You can suggest a correction to this tab. Community and Mods will review your correction and vote to approve or reject it.
comments
We did not receive enough feedback on this tab! Please rate:
print report bad tab
1 2 3 4 5
guest
You may want to rate the tab now too:
select rating
Please do not post tabs as comments. Select "correction" instead!