Oops, an error
Loading. Please wait.

Eyes Of A Panther Tab

version 1
version 1

Whole song

Interactive

75,869 views 120 this week
7 commentsread comments
1 2 3 4 5
excellent!
x 17
add to favorites
launch autoscroll
font size
0
reset
how to read this tab
guitar tuner
Autoscroll
slow
fast
+/-
esc
set tempo
stop
Help us to improve Ultimate-Guitar.com Take our survey!
×
Contributor
Tuning
Tabbers playing skills
trem7 577
D# G# C# F# A# D#
intermediate ++
Words and Music by Steel Panther
Arranged by Steel Panther
Transcribed by Adam Tremblett

Gtr I (Eb Ab Db Gb Bb Eb) - 'Untitled'
Gtr II (Eb Ab Db Gb Bb Eb) - 'Untitled'
Gtr III (Eb Ab Db Gb Bb Eb) - 'Untitled'

[Intro]

    Q=170
    Gtr I
    H..       E   +E  E E E E E E E   E   E E E Q.   E
D#|-------------|-------------------|------------------|
A#|-------------|-------------------|------------------|
F#|-------------|-------------------|------------------|
C#|-----------4-|-(4)-4-------7-----|---------7------2-|
G#|-----------4-|-(4)-4-9-7-9---9-7-|-9---7-9---9----2-|
D#|-----------2-|-(2)-2-------------|----------------0-|

   Gtr II
    W              W                  H..            E
D#|-------------|-------------------|------------------|
A#|-------------|-------------------|------------------|
F#|-------------|-------------------|------------------|
C#|-------------|-------------------|----------------2-|
G#|-------------|-------------------|----------------2-|
D#|-------------|-------------------|----------------0-|


    +E  E E E E E E E   E E E E Q.   E
D#|-------------------|------------------|
A#|-------------------|------------------|
F#|-------------------|------------------|
C#|-(2)-2-------7-----|-------7-6----4---|
G#|-(2)-2-9-7-9---9-7-|-9-7-9--------4---|
D#|-(0)-0-------------|--------------2---|

    +E  E E E E E E E   E E E E Q.   E
D#|-------------------|------------------|
A#|-------------------|------------------|
F#|-------------6-----|-------6----------|
C#|-(2)-2-7-6-7---7-6-|-7-6-7---9----4---|
G#|-(2)-2-------------|--------------4---|
D#|-(0)-0-------------|--------------2---|


    +E  E E E E E E E   E E E E Q.   E   +E  E E E E E E E   E E E E E E E E
D#|-------------------|----------------|-------------------|------------------|
A#|-------------------|----------------|-------------------|------------------|
F#|-------------------|----------------|-------------------|------------------|
C#|-(4)-4-------7-----|-------7------2-|-(2)-2-------7-----|---------------4--|
G#|-(4)-4-9-7-9---9-7-|-9-7-9---9----2-|-(2)-2-9-7-9---9-7-|-9-9-9-9-9-7---4--|
D#|-(2)-2-------------|--------------0-|-(0)-0-------------|-------------9-2--|
 
   +E  E E E E E E E   E E E E Q.   E   +E  E E E E E E E   E E E E E E E E
D#|-------------------|----------------|-------------------|------------------|
A#|-------------------|----------------|-------------------|------------------|
F#|-------------6-----|-------6--------|-------------6-----|------------------|
C#|-(4)-4-7-6-7---7-6-|-7-6-7---7----2-|-(2)-2-7-6-7---7-6-|-7-7-7-7-7-6---4--|
G#|-(4)-4-------------|--------------2-|-(2)-2-------------|-------------7-4--|
D#|-(2)-2-------------|--------------0-|-(0)-0-------------|---------------2--|


    +E  E E E E E E E   E E E E Q.   E   +E  E E E E E E E   E E E E Q.   E
D#|-------------------|----------------|-------------------|-----------------|
A#|-------------------|----------------|-------------------|-----------------|
F#|-------------------|----------------|-------------------|-----------------|
C#|-(4)-4-------7-----|-------7------2-|-(2)-2-------7-----|-------7-6----4--|
G#|-(4)-4-9-7-9---9-7-|-9-7-9---9----2-|-(2)-2-9-7-9---9-7-|-9-7-9--------4--|
D#|-(2)-2-------------|--------------0-|-(0)-0-------------|--------------2--|

    +E  E E E E E E E   E E E E Q.   E   +E  E E E E E E E   E E E E Q.   E
D#|-------------------|----------------|-------------------|-----------------|
A#|-------------------|----------------|-------------------|-----------------|
F#|-------------6-----|-------6--------|-------------6-----|-------6---------|
C#|-(4)-4-7-6-7---7-6-|-7-6-7---7----2-|-(2)-2-7-6-7---7-6-|-7-6-7---9----4--|
G#|-(4)-4-------------|--------------2-|-(2)-2-------------|--------------4--|
D#|-(2)-2-------------|--------------0-|-(0)-0-------------|--------------2--|


    +E  E E E E E E E   E E E E Q.   E   +E  E E E E E E E   E E Q  E E E E
D#|-------------------|----------------|-------------------|-----------------|
A#|-------------------|----------------|-------------------|-----------------|
F#|-------------------|----------------|-------------------|-2-2-------------|
C#|-(4)-4-------7-----|-------7------2-|-(2)-2-------7-----|-2-2----2-2---4--|
G#|-(4)-4-9-7-9---9-7-|-9-7-9---9----2-|-(2)-2-9-7-9---9-7-|-0-0----2-2---4--|
D#|-(2)-2-------------|--------------0-|-(0)-0-------------|--------0-0---2--|
 
    +E  E E E E E E E   E E E E Q.   E   +E  E E E E E E E   E E Q  E E E E
D#|-------------------|----------------|-------------------|-----------------|
A#|-------------------|----------------|-------------------|-----------------|
F#|-------------6-----|-------6--------|-------------6-----|-2-2-------------|
C#|-(4)-4-7-6-7---7-6-|-7-6-7---7----2-|-(2)-2-7-6-7---7-6-|-2-2----2-2---4--|
G#|-(4)-4-------------|--------------2-|-(2)-2-------------|-0-0----2-2---4--|
D#|-(2)-2-------------|--------------0-|-(0)-0-------------|--------0-0---2--|


[Verse]

    Gtrs I, II
    +E  E E E E E E E   +E  E E E E E E E
D#|-------------------|-------------------|
A#|-------------------|-------------------|
F#|-----------------4-|-(4)-------------2-|
C#|-(4)-------------4-|-(4)-4-4-4-4-4-4-2-|
G#|-(4)-4-4-4-4-4-4-2-|-(2)-2-2-2-2-2-2-0-|
D#|-(2)-2-2-2-2-2-2---|-------------------|

    +E  E E E E E E E   +E  E E E E E E E
D#|-------------------|--------------------|
A#|-------------------|--------------------|
F#|-(2)---------------|--------------------|
C#|-(2)-2-2-2-2-2-2---|-----------------4--|
G#|-(0)-0-0-0-0-0-0-5-|-(5)-0-4-0-2-4---4--|
D#|-------------------|-----------------2--|

    +E  E E E E E E E   +E  E E E E E E E   +E  E E E E E E E   E E E E E E E E
D#|-------------------|-------------------|-------------------|------------------|
A#|-------------------|-------------------|-------------------|------------------|
F#|-----------------4-|-(4)-------------2-|-(2)-------------7-|---6---7---2------|
C#|-(4)-------------4-|-(4)-4-4-4-4-4-4-2-|-(2)-2-2-2-2-2-2-7-|---6---7---2---4--|
G#|-(4)-4-4-4-4-4-4-2-|-(2)-2-2-2-2-2-2-0-|-(0)-0-0-0-0-0-0-5-|---4---5---0---4--|
D#|-(2)-2-2-2-2-2-2---|-------------------|-------------------|---------------2--|


    Gtr I
    +E  E E E E E E E   +E  E E E E E E E
D#|-------------------|-------------------|
A#|-------------------|-------------------|
F#|-----------------4-|-(4)-------------2-|
C#|-(4)-------------4-|-(4)-4-4-4-4-4-4-2-|
G#|-(4)-4-4-4-4-4-4-2-|-(2)-2-2-2-2-2-2-0-|
D#|-(2)-2-2-2-2-2-2---|-------------------|
 
    Gtr II
    +E  E E E E E E E   +E  E E E E E E E
D#|-------------------|-------------------|
A#|-------------------|-------------------|
F#|-----------------4-|-(4)-------------2-|
C#|-(4)-------------4-|-(4)-4-4-4-4-4-4-2-|
G#|-(4)-4-4-4-4-4-4-2-|-(2)-2-2-2-2-2-2-0-|
D#|-(2)-2-2-2-2-2-2---|-------------------|


    +E  E E E E E E E   +E  E E E E E E  E
D#|-------------------|---------------------|
A#|-------------------|---------------------|
F#|-(2)---------------|------------------6--|
C#|-(2)-2-2-2-2-2-2---|------------------6--|
G#|-(0)-0-0-0-0-0-0-5-|-(5)-0-4-0-2-4----4--|
D#|-------------------|---------------------|
 
    +E  E E E E E E E   +E  E E E E E E  E
D#|-------------------|-----------------13--|
A#|-------------------|---------------------|
F#|-(2)---------------|---------------------|
C#|-(2)-2-2-2-2-2-2---|---------------------|
G#|-(0)-0-0-0-0-0-0-5-|-(5)-0-4-0-2-4-------|
D#|-------------------|---------------------|


[Pre-Chorus]

     +E  E E E  E  E E  E     E   E E E E E E  E
D#|-----------------------|----------------------|
A#|-----------------------|----------------------|
F#|--(6)------------------|--------------------7-|
C#|--(6)-6-6-6--6--6-6--6-|---6---6-6-6-6-6-6--7-|
G#|--(4)-4-4-4--4--4-4--4-|---4---4-4-4-4-4-4--5-|
D#|-----------------------|----------------------|
 
                        ~~~~~~~~~~
     +H         Q.      E    +H..              E
D#|-(13)------------------|-------------------14-|
A#|------------14---------|----------------------|
F#|--------------------13-|-(13)-----------------|
C#|-----------------------|----------------------|
G#|-----------------------|----------------------|
D#|-----------------------|----------------------|


     +E  E E E  E  E E  E    +E  E E E E E E E
D#|-----------------------|---------------------|
A#|-----------------------|---------------------|
F#|--(7)----------------9-|--(9)----------------|
C#|--(7)-7-7-7--7--7-7--9-|--(9)-9-9-9-9-9-9-4--|
G#|--(5)-5-5-5--5--5-5--7-|--(7)-7-7-7-7-7-7-4--|
D#|-----------------------|------------------2--|
 
                        ~~~~~~~~~
     +H         Q.      E    +W
D#|-(14)------------------|---------------------|
A#|------------15---------|---------------------|
F#|--------------------14-|-(14)----------------|
C#|-----------------------|---------------------|
G#|-----------------------|---------------------|
D#|-----------------------|---------------------|


[Chorus]

      Gtrs I, II
      +E  E E E Q  E E   +Q.   H    E   +E  E E E E E E E   +E  E E Q  E E E
D#||-------------------|--------------|-------------------|-------------------||
A#||o------------------|--------------|-------------------|------------------o||
F#||-----------------2-|-(2)--------7-|-(7)-------------2-|-(2)-----4---------||
C#||--(4)---2---4----2-|-(2)---2----7-|-(7)-7-7-7-7-7-7-2-|-(2)-2-2-4--4-4-4--||
G#||o-(4)---2---4----0-|-(0)---2----5-|-(5)-5-5-5-5-5-5-0-|-(0)-0-0-2--2-2-4-o||
D#||--(2)-2---2----2---|-------0------|-------------------|----------------2--||

    +E  E E E Q  E E   +Q.   H    E   +W           +H..       E
D#|------------------|--------------|------------|---------------|
A#|------------------|--------------|------------|---------------|
F#|----------------2-|-(2)--------4-|-(4)--------|-(4)-----------|
C#|-(4)---2---4----2-|-(2)---2----4-|-(4)--------|-(4)--------4--|
G#|-(4)---2---4----0-|-(0)---2----2-|-(2)--------|-(2)--------4--|
D#|-(2)-2---2----2---|-------0------|------------|------------2--|

    +E  E E E E E E E   E E E E E E E E   E E E E E E E E   E E E E E E E E
D#|-------------------|-----------------|-----------------|------------------|
A#|-------------------|-----------------|-----------------|------------------|
F#|-------------------|-----------------|-----------------|------------------|
C#|-(4)-4-------7-----|-------6-7-6-----|---------------6-|-7-6-----------4--|
G#|-(4)-4-9-7-9---9-7-|-9-7-9-------9-7-|-9-7-------7-9---|-----9-7---7---4--|
D#|-(2)-2-------------|-----------------|-----9-7-9-------|---------9-----2--|
 
    +E  E E E E E E E   E E E E E E E E   E E E E E E E E   E E E E E E E E
D#|-------------------|-----------------|-----------------|------------------|
A#|-------------------|-----------------|-----------------|------------------|
F#|-------------6-----|---------6-------|-----------------|-6----------------|
C#|-(4)-4-7-6-7---7-6-|-7-6-7-9---9-7-6-|-7-6-------6-7-9-|---9-7-6---6---4--|
G#|-(4)-4-------------|-----------------|-----9-7-9-------|---------7-----4--|
D#|-(2)-2-------------|-----------------|-----------------|---------------2--|

    +E  E E E E E E E   E E E E Q.   E   +E  E E E E E E E   E E Q  E E E E
D#|-------------------|----------------|-------------------|-----------------|
A#|-------------------|----------------|-------------------|-----------------|
F#|-------------------|----------------|-------------------|-2-2-------------|
C#|-(4)-4-------7-----|-------7------2-|-(2)-2-------7-----|-2-2----2-2---4--|
G#|-(4)-4-9-7-9---9-7-|-9-7-9---9----2-|-(2)-2-9-7-9---9-7-|-0-0----2-2---4--|
D#|-(2)-2-------------|--------------0-|-(0)-0-------------|--------0-0---2--|
 
    +E  E E E E E E E   E E E E Q.   E   +E  E E E E E E E   E E Q  E E E E
D#|-------------------|----------------|-------------------|-----------------|
A#|-------------------|----------------|-------------------|-----------------|
F#|-------------6-----|-------6--------|-------------6-----|-2-2-------------|
C#|-(4)-4-7-6-7---7-6-|-7-6-7---7----2-|-(2)-2-7-6-7---7-6-|-2-2----2-2---4--|
G#|-(4)-4-------------|--------------2-|-(2)-2-------------|-0-0----2-2---4--|
D#|-(2)-2-------------|--------------0-|-(0)-0-------------|--------0-0---2--|


[Pre-Chorus]

     E E E E  E  E E  E     E   E E E E E E  E
D#|---------------------|----------------------|
A#|---------------------|----------------------|
F#|--6------------------|--------------------7-|
C#|--6-6-6-6--6--6-6--6-|---6---6-6-6-6-6-6--7-|
G#|--4-4-4-4--4--4-4--4-|---4---4-4-4-4-4-4--5-|
D#|---------------------|----------------------|

                      ~~~~~~~~~~
     H        Q.      E    +H..              E
D#|-13------------------|-------------------14-|
A#|----------14---------|----------------------|
F#|------------------13-|-(13)-----------------|
C#|---------------------|----------------------|
G#|---------------------|----------------------|
D#|---------------------|----------------------|

     +E  E E E  E  E E  E    +E  E E E E E E E
D#|-----------------------|---------------------|
A#|-----------------------|---------------------|
F#|--(7)----------------7-|--(7)-------------6--|
C#|--(7)-7-7-7--7--7-7--7-|--(7)-7-7-7-7-7-7-6--|
G#|--(5)-5-5-5--5--5-5--5-|--(5)-5-5-5-5-5-5-4--|
D#|-----------------------|---------------------|
 
                        ~~~~~~~~~
     +H         Q.      E    +W
D#|-(14)------------------|---------------------|
A#|------------15---------|---------------------|
F#|--------------------14-|-(14)----------------|
C#|-----------------------|---------------------|
G#|-----------------------|---------------------|
D#|-----------------------|---------------------|

    +E  E E E  E  E E  E     E   E E E E E E E
D#|----------------------|---------------------|
A#|----------------------|---------------------|
F#|-(6)------------------|-------------------7-|
C#|-(6)-6-6-6--6--6-6--6-|---6---6-6-6-6-6-6-7-|
G#|-(4)-4-4-4--4--4-4--4-|---4---4-4-4-4-4-4-5-|
D#|----------------------|---------------------|
 
                       ~~~~~~~~~~
     H         Q.      E    +H..             E
D#|-13-------------------|---------------------|
A#|-----------14---------|---------------------|
F#|-------------------13-|-(13)--------------7-|
C#|----------------------|-------------------7-|
G#|----------------------|-------------------5-|
D#|----------------------|---------------------|

    +E  E E E E E E E   +E  E E  Q   E  E E
D#|-------------------|----------------------|
A#|-------------------|----------------------|
F#|-(7)-------------9-|-(9)-----10-----------|
C#|-(7)-7-7-7-7-7-7-9-|-(9)-9-9-10--10-10-4--|
G#|-(5)-5-5-5-5-5-5-7-|-(7)-7-7--8---8--8-4--|
D#|-------------------|-------------------2--|
 
    +E  E E E E E E E   +E  E E  Q   E  E E
D#|-------------------|----------------------|
A#|-------------------|----------------------|
F#|-(7)-------------9-|-(9)-----10-----------|
C#|-(7)-7-7-7-7-7-7-9-|-(9)-9-9-10--10-10-4--|
G#|-(5)-5-5-5-5-5-5-7-|-(7)-7-7--8---8--8-4--|
D#|-------------------|-------------------2--|


[Breakdown]

    Gtrs I, II
    +E  E E E E E E E   E E E E Q  E E   +E  E E E E E E E   E E E E Q  E E
D#|-------------------|----------------|-------------------|-----------------|
A#|-------------------|----------------|-------------------|-----------------|
F#|---------------2---|---------2------|---------------2---|---------2-------|
C#|-(4)---2---4---2---|-2---4---2----4-|-(4)---2---4---2---|-2---4---2----4--|
G#|-(4)---2---4-------|-2---4--------4-|-(4)---2---4-------|-2---4--------4--|
D#|-(2)-2---2---2---2-|---2---2----2-2-|-(2)-2---2---2---2-|---2---2----2-2--|


    Gtr I
    +E  E E E E E E E   E E E E Q  E E
D#|-------------------|----------------|
A#|-------------------|----------------|
F#|---------------2---|---------2------|
C#|-(4)---2---4---2---|-2---4---2----4-|
G#|-(4)---2---4-------|-2---4--------4-|
D#|-(2)-2---2---2---2-|---2---2----2-2-|
 
    Gtr II
    +E  E E E E E E E   E E E E Q  E E
D#|-------------------|----------------|
A#|-------------------|----------------|
F#|---------------2---|---------2------|
C#|-(4)---2---4---2---|-2---4---2----4-|
G#|-(4)---2---4-------|-2---4--------4-|
D#|-(2)-2---2---2---2-|---2---2----2-2-|

    +E  E E E E E E E   E E E E Q.    E
D#|-------------------|----------------------|
A#|-------------------|----------------------|
F#|---------------2---|---------2-----4------|
C#|-(4)---2---4---2---|-2---4---2-----4------|
G#|-(4)---2---4-------|-2---4---------2------|
D#|-(2)-2---2---2---2-|---2---2--------------|
 
    +E  E E E E E E E   E E E E Q.    E
D#|-------------------|--------------17------|
A#|-------------------|--------------18b19===|
F#|---------------2---|---------2------------|
C#|-(4)---2---4---2---|-2---4---2------------|
G#|-(4)---2---4-------|-2---4----------------|
D#|-(2)-2---2---2---2-|---2---2--------------|


[Guitar Solo]

     +E  E E   E   E E E  E      +E   E  E  E +E   E  E  E
D#|----------------------------|---------------------------|
A#|----------------------------|---------------------------|
F#|--(4)---2-------4------7----|-(7)--------2-(2)----------|
C#|--(4)-4-2---4---4-4-4--7----|-(7)--7--7--2-(2)--2--2--5-|
G#|--(2)-2-----2---2-2-2--5----|-(5)--5--5--0-(0)--0--0--5-|
D#|----------------------------|-------------------------3-|
 
      ~~~~~~~~~~~~~                                      ~~~
     +Q.      +H          S  S    E   E  E  E  E   E  E  E
D#|-(17)-----(17)--------------|-----------14--------------|
A#|-(18)-----(18)r-------17-15-|-14--15-17----17--15-14----|
F#|----------------------------|------------------------16-|
C#|----------------------------|---------------------------|
G#|----------------------------|---------------------------|
D#|----------------------------|---------------------------|

     +E  E E  E    E     E   E    E   +E   E E  E  +E  E E E
D#|---------------------------------|------------------------|
A#|---------------------------------|------------------------|
F#|-------------------------------7-|-(7)-------9--(9)-----4-|
C#|--(5)--------------------------7-|-(7)--7-7--9--(9)-9-9-4-|
G#|--(5)-5-5--5----5-----5---5----5-|-(5)--5-5--7--(7)-7-7-2-|
D#|--(3)-3-3--3----3-----3---3------|------------------------|

   ~~~~~~                                    ~
     +Q.      S  S S  S  S S S S  E    e   E E +H          E
D#|---------------------------------|------------------------|
A#|---------------------------------|------------------------|
F#|-(16)-----14-11-9----11-9-6---10-|-----10-9-(9)-----------|
C#|------------------11--------9----|----------------------9-|
G#|---------------------------------|------------------------|
D#|---------------------------------|------------------------|

    +E  E E  E  E E  E  E   +E   E  E  E +E   E  E  E
D#|-----------------------|---------------------------|
A#|-----------------------|---------------------------|
F#|-(4)---2-----4-------7-|-(7)--------2-(2)----------|
C#|-(4)-4-2--4--4-4--4--7-|-(7)--7--7--2-(2)--2--2--5-|
G#|-(2)-2----2--2-2--2--5-|-(5)--5--5--0-(0)--0--0--5-|
D#|-----------------------|-------------------------3-|
 
                                                    ~~~
    +E  E E  E  E E  E  E    E   E  E  E  E   E  E  E
D#|-----------------------|--------------14--15-17-19-|
A#|-----------------------|-----12-14-15--------------|
F#|------------10---------|-11------------------------|
C#|-(9)-8-9-11----9-11-12-|---------------------------|
G#|-----------------------|---------------------------|
D#|-----------------------|---------------------------|
 
    Gtr III
     W                       H            E   E  E  E
D#|-----------------------|------------------------15-|
A#|-----------------------|--------------15--17-19----|
F#|-----------------------|---------------------------|
C#|-----------------------|---------------------------|
G#|-----------------------|---------------------------|
D#|-----------------------|---------------------------|


     +E  E E E E E  E  E    +E   E E E +E  E E  E
D#|----------------------|---------------------------|
A#|----------------------|---------------------------|
F#|--------------------7-|--(7)------9-(9)------4----|
C#|--(5)---------------7-|--(7)--7-7-9-(9)-9-9--4----|
G#|--(5)-5-5-5-5-5--5--5-|--(5)--5-5-7-(7)-7-7--2----|
D#|--(3)-3-3-3-3-3--3----|---------------------------|
 
   ~~~~~~              ~~~~~~~~~~
     +H.            E  E    +H..                S  S
D#|-(19)--------------22-|-(22)----------------14-19-|
A#|----------------19----|---------------------------|
F#|----------------------|---------------------------|
C#|----------------------|---------------------------|
G#|----------------------|---------------------------|
D#|----------------------|---------------------------|
 
                             ~~~~~
     +H.            E  E    +H..                E
D#|-(15)--------------19-|-(19)----------------------|
A#|----------------15----|---------------------------|
F#|----------------------|---------------------------|
C#|----------------------|---------------------------|
G#|----------------------|---------------------------|
D#|----------------------|---------------------------|

     E     E     E     E     E     E     E     E
D#|-------------------------------------------------|
A#|-------------------------------------------------|
F#|--4-----------2-----------4-----------------7----|
C#|--4-----4-----2-----4-----4-----4-----4-----7----|
G#|--2-----2-----------2-----2-----2-----2-----5----|
D#|-------------------------------------------------|
 
     S  S  S  S  S  S  S  S  S  S  S  S  S  S  S  S
D#|-19-19-19----------------------------------------|
A#|----------15-19-19-19-19-------------------------|
F#|-------------------------14-19-19-19-19----------|
C#|----------------------------------------16-19-19-|
G#|-------------------------------------------------|
D#|-------------------------------------------------|


    +E      E     E     E    +E      E     E     E    +W               +H..        E
D#|------------------------------------------------|----------------|-------------------|
A#|------------------------------------------------|----------------|-------------------|
F#|-(7)-----------------2----(2)-------------------|----------------|-------------------|
C#|-(7)-----7-----7-----2----(2)-----2-----2-----5-|--(5)-----------|--(5)---------4----|
G#|-(5)-----5-----5-----0----(0)-----0-----0-----5-|--(5)-----------|--(5)---------4----|
D#|----------------------------------------------3-|--(3)-----------|--(3)---------2----|
 
                                              ~~~~~~~~~~~~              ~~~~~~
     S   S  S  S  S  S  S  S  S   S  S  S  S  E.      +H.       Q      +H..        E
D#|---------------------------------------17-16----|-(16)-----------|-------------------|
A#|------------------------------15-17-19-17-17----|-(17)------<5>--|-(<5>)\------------|
F#|--------------------16-14-18--------------------|----------------|-------------------|
C#|-19--19----14-16-17-----------------------------|----------------|--------------4----|
G#|--------17--------------------------------------|----------------|--------------4----|
D#|------------------------------------------------|----------------|--------------2----|


[Verse]

    Gtrs I, II
     E  E E E E E E E   +E  E E E E E E E
D#|-------------------|-------------------|
A#|-------------------|-------------------|
F#|-----------------4-|-(4)-------------2-|
C#|-(4)-------------4-|-(4)-4-4-4-4-4-4-2-|
G#|--4--4-4-4-4-4-4-2-|-(2)-2-2-2-2-2-2-0-|
D#|-(2)-2-2-2-2-2-2---|-------------------|

    +E  E E E E E E E   +E  E E E E E E E
D#|-------------------|--------------------|
A#|-------------------|--------------------|
F#|-(2)---------------|--------------------|
C#|-(2)-2-2-2-2-2-2---|-----------------4--|
G#|-(0)-0-0-0-0-0-0-5-|-(5)-0-4-0-2-4---4--|
D#|-------------------|-----------------2--|

    +E  E E E E E E E   +E  E E E E E E E   +E  E E E E E E E   E E E E E E E E
D#|-------------------|-------------------|-------------------|------------------|
A#|-------------------|-------------------|-------------------|------------------|
F#|-----------------4-|-(4)-------------2-|-(2)-------------7-|---6---7---2------|
C#|-(4)-------------4-|-(4)-4-4-4-4-4-4-2-|-(2)-2-2-2-2-2-2-7-|---6---7---2---4--|
G#|-(4)-4-4-4-4-4-4-2-|-(2)-2-2-2-2-2-2-0-|-(0)-0-0-0-0-0-0-5-|---4---5---0---4--|
D#|-(2)-2-2-2-2-2-2---|-------------------|-------------------|---------------2--|

    Gtr I
    +E  E E E E E E E   +E  E E E E E E E
D#|-------------------|-------------------|
A#|-------------------|-------------------|
F#|-----------------4-|-(4)-------------2-|
C#|-(4)-------------4-|-(4)-4-4-4-4-4-4-2-|
G#|-(4)-4-4-4-4-4-4-2-|-(2)-2-2-2-2-2-2-0-|
D#|-(2)-2-2-2-2-2-2---|-------------------|
 
    Gtr II
     E  E E E E E E E   +E  E E E E E E E
D#|-------------------|-------------------|
A#|-------------------|-------------------|
F#|-----------------4-|-(4)-------------2-|
C#|--4--------------4-|-(4)-4-4-4-4-4-4-2-|
G#|--4--4-4-4-4-4-4-2-|-(2)-2-2-2-2-2-2-0-|
D#|--2--2-2-2-2-2-2---|-------------------|

    +E  E E E E E E E   +E  E E E E E E  E
D#|-------------------|---------------------|
A#|-------------------|---------------------|
F#|-(2)---------------|------------------6--|
C#|-(2)-2-2-2-2-2-2---|------------------6--|
G#|-(0)-0-0-0-0-0-0-5-|-(5)-0-4-0-2-4----4--|
D#|-------------------|---------------------|
 
    +E  E E E E E E E   +E  E E E E E E  E
D#|-------------------|-----------------13--|
A#|-------------------|---------------------|
F#|-(2)---------------|---------------------|
C#|-(2)-2-2-2-2-2-2---|---------------------|
G#|-(0)-0-0-0-0-0-0-5-|-(5)-0-4-0-2-4-------|
D#|-------------------|---------------------|


[Pre-Chorus]

     +E  E E E  E  E E  E    +E   E E E E E E  E
D#|-----------------------|----------------------|
A#|-----------------------|----------------------|
F#|--(6)----------------6-|--(6)---------------7-|
C#|--(6)-6-6-6--6--6-6--6-|--(6)--6-6-6-6-6-6--7-|
G#|--(4)-4-4-4--4--4-4--4-|--(4)--4-4-4-4-4-4--5-|
D#|-----------------------|----------------------|
 
                        ~~~~~~~~~~
     +H         Q.      E    +H..              E
D#|-(13)------------------|-------------------14-|
A#|------------14---------|----------------------|
F#|--------------------13-|-(13)-----------------|
C#|-----------------------|----------------------|
G#|-----------------------|----------------------|
D#|-----------------------|----------------------|

     +E  E E E  E  E E  E    +E  E E E E E E E
D#|-----------------------|---------------------|
A#|-----------------------|---------------------|
F#|--(7)----------------9-|--(9)----------------|
C#|--(7)-7-7-7--7--7-7--9-|--(9)-9-9-9-9-9-9-4--|
G#|--(5)-5-5-5--5--5-5--7-|--(7)-7-7-7-7-7-7-4--|
D#|-----------------------|------------------2--|

                        ~~~~~~~~~
     +H         Q.      E    +W
D#|-(14)------------------|---------------------|
A#|------------15---------|---------------------|
F#|--------------------14-|-(14)----------------|
C#|-----------------------|---------------------|
G#|-----------------------|---------------------|
D#|-----------------------|---------------------|

    Gtrs I, II
    +E  E H    E E   +Q.   H    E   +W           +H..       E
D#|----------------|--------------|------------|---------------|
A#|----------------|--------------|------------|---------------|
F#|--------------2-|-(2)--------4-|-(4)--------|-(4)-----------|
C#|-(4)-4--------2-|-(2)---2----4-|-(4)--------|-(4)--------4--|
G#|-(4)-4--------0-|-(0)---2----2-|-(2)--------|-(2)--------4--|
D#|-(2)-2----------|-------0------|------------|------------2--|


[Chorus]

      +E  E E E Q  E E   +Q.   H    E   +E  E E E E E E E   +E  E E Q  E E E
D#||-------------------|--------------|-------------------|-------------------||
A#||o------------------|--------------|-------------------|------------------o||
F#||-----------------2-|-(2)--------7-|-(7)-------------2-|-(2)-----4---------||
C#||--(4)---2---4----2-|-(2)---2----7-|-(7)-7-7-7-7-7-7-2-|-(2)-2-2-4--4-4-4--||
G#||o-(4)---2---4----0-|-(0)---2----5-|-(5)-5-5-5-5-5-5-0-|-(0)-0-0-2--2-2-4-o||
D#||--(2)-2---2----2---|-------0------|-------------------|----------------2--||

    +E  E E E Q  E E   +Q.   H    E   +H..       E   +H..       E
D#|------------------|--------------|--------------|---------------|
A#|------------------|--------------|--------------|---------------|
F#|----------------2-|-(2)--------4-|-(4)--------6-|-(6)-----------|
C#|-(4)---2---4----2-|-(2)---2----4-|-(4)--------6-|-(6)--------4--|
G#|-(4)---2---4----0-|-(0)---2----2-|-(2)--------4-|-(4)--------4--|
D#|-(2)-2---2----2---|-------0------|--------------|------------2--|

    Gtr I
    +E  E E E E E E E   E E E E Q.   E   +E  E E E E E E E   E E E E Q.   E
D#|-------------------|----------------|-------------------|-----------------|
A#|-------------------|----------------|-------------------|-----------------|
F#|-------------------|----------------|-------------------|-----------------|
C#|-(4)-4-------7-----|-------7------2-|-(2)-2-------7-----|-------7-6----4--|
G#|-(4)-4-9-7-9---9-7-|-9-7-9---9----2-|-(2)-2-9-7-9---9-7-|-9-7-9--------4--|
D#|-(2)-2-------------|--------------0-|-(0)-0-------------|--------------2--|
 
   Gtr II
    +E  E E E E E E E   E E E E Q.   E   +E  E E E E E E E   E E E E Q.   E
D#|-------------------|----------------|-------------------|-----------------|
A#|-------------------|----------------|-------------------|-----------------|
F#|-------------------|----------------|-------------6-----|-------6---------|
C#|-(4)-4-------7-----|-------7------2-|-(2)-2-7-6-7---7-6-|-7-6-7---9----4--|
G#|-(4)-4-9-7-9---9-7-|-9-7-9---9----2-|-(2)-2-------------|--------------4--|
D#|-(2)-2-------------|--------------0-|-(0)-0-------------|--------------2--|

    +E  E E E E E E E   E E E E Q.   E   +E  E E E E E E E   E E E E Q.   E
D#|-------------------|----------------|-------------------|-----------------|
A#|-------------------|----------------|-------------------|-----------------|
F#|-------------------|----------------|-------------------|-----------------|
C#|-(4)-4-------7-----|-------7------2-|-(2)-2-------7-----|-------7-6----4--|
G#|-(4)-4-9-7-9---9-7-|-9-7-9---9----2-|-(2)-2-9-7-9---9-7-|-9-7-9--------4--|
D#|-(2)-2-------------|--------------0-|-(0)-0-------------|--------------2--|
 
    +E  E E E E E E E   E E E E Q.   E   +E  E E E E E E E   E E E E Q.   E
D#|-------------------|----------------|-------------------|-----------------|
A#|-------------------|----------------|-------------------|-----------------|
F#|-------------6-----|-------6--------|-------------6-----|-------6---------|
C#|-(4)-4-7-6-7---7-6-|-7-6-7---7----2-|-(2)-2-7-6-7---7-6-|-7-6-7---9----4--|
G#|-(4)-4-------------|--------------2-|-(2)-2-------------|--------------4--|
D#|-(2)-2-------------|--------------0-|-(0)-0-------------|--------------2--|

    E E E E E E E E   E E E E Q.   E
D#|-----------------|----------------|
A#|-----------------|----------------|
F#|-----------------|----------------|
C#|-4-4-------7-----|-------7------2-|
G#|-4-4-9-7-9---9-7-|-9-7-9---9----2-|
D#|-2-2-------------|--------------0-|
 
  | E E E E E E E E   E E E E Q.   E
D#|-----------------|----------------|
A#|-----------------|----------------|
F#|-----------6-----|-------6--------|
C#|-4-4-7-6-7---7-6-|-7-6-7---7----2-|
G#|-4-4-------------|--------------2-|
D#|-2-2-------------|--------------0-|

    +E  E E E E E E E   E E Q  E E E E   +E  E H.
D#|-------------------|----------------|-------------*|
A#|-------------------|----------------|-------------*|
F#|-------------------|-2-2------------|-------------*|
C#|-(2)-2-------7-----|-2-2----2-2---4-|-(4)-4-------*|
G#|-(2)-2-9-7-9---9-7-|-0-0----2-2---4-|-(4)-4-------*|
D#|-(0)-0-------------|--------0-0---2-|-(2)-2-------*|
 
    +E  E E E E E E E   E E Q  E E E E   +E  E H.
D#|-------------------|----------------|-------------*|
A#|-------------------|----------------|-------------*|
F#|-------------6-----|-2-2------------|-------------*|
C#|-(2)-2-7-6-7---7-6-|-2-2----2-2---4-|-(4)-4-------*|
G#|-(2)-2-------------|-0-0----2-2---4-|-(4)-4-------*|
D#|-(0)-0-------------|--------0-0---2-|-(2)-2-------*|

************************************************************************************************
Duration Legend

W - whole; H - half; Q - quarter; E - 8th; S - 16th; T - 32nd; X - 64th; a - acciaccatura
+ - note tied to previous; . - note dotted; .. - note double dotted
Uncapitalized letters represent notes that are staccato (1/2 duration)
Irregular groupings are notated above the duration line
Duration letters will always appear directly above the note/fret number it represents the
duration for.  Duration letters with no fret number below them represent rests.  Multi-
bar rests are notated in the form Wxn, where n is the number of bars to rest for.  Low
melody durations appear below the staff


************************************************************************************************

Tablature Legend

| (n)  Ghost note
|   Natural harmonic
| b    Bend
| \    Slide down
| =    hold bend; also acts as connecting device for hammers/pulls
| r    bend release

************************************************************************************************

Misc Legend

 |  - bar
||  - double bar
||o - repeat start
o|| - repeat end
*|  - double bar (ending)

************************************************************************************************
Suggest correction What's this?
You can suggest a correction to this tab. Community and Mods will review your correction and vote to approve or reject it.
comments
print report bad tab
7 comments total. Showing first comments.
0 reply
JFRules 929 wrote on December 6 2009, 11:16 am

YEssssssss!~

0 reply
DrkParadox 155 wrote on January 7 2010, 12:18 am

THANK YOUU! I've requested this tab before and finally someone tabbed it!

+2 reply
alexm1993 16 wrote on March 1 2010, 12:11 pm

if u want to make it easier instead of playing 7 and 9 on the a string play 2 and 4 on the d string just the same notes but easier to get to from the F5 chord

I want to post or [tab]
guest
You may want to rate the tab now too:
select rating
Please do not post tabs as comments. Select "correction" instead!