Oops, an error
Loading. Please wait.

Eyes Of A Panther Bass Tab

version 2
version 2

Whole song

Interactive

2,937 views 27 this week
1 commentread comment
1 2 3 4 5
accurate
x 5
add to favorites
launch autoscroll
font size
0
reset
guitar tuner
Autoscroll
slow
fast
+/-
esc
set tempo
stop
Help us to improve Ultimate-Guitar.com Take our survey!
×
Eyes of a Panther
Steel Panther
Tabbed by Hals Shinigami

Yo bassists of UltimateGuitar!
(hello guitarists if you mis-clicked xD)

This is the bass tab for Eyes of a Panther. I wrote this because the existing verson was
a bit complicated to look at,
and needed a few corrections. I have written this how I play, and I personally think it
sounds great! This song is not
too difficult, but it requires alot of strength in your playing arm.

This again will probably not be 100% accurate, but it has taken me a few days to write
this so don't be harsh please!

Enjoy, and rock on!

RAWRAWRRR!

Intro

F#)------------------------------|
C#)------------------------------|
G#)------------------------------|
D#)-2-2---0-0---2-2---0-0--------|


F#)---------------------------------------|
C#)---------------------------------------|
G#)-------------------------------0-0-----|
D#)-2(x16)-0(x16)-2(x16)-0(x16)-------0-0-|

Verse 1

F#)-------------------------------------------|
C#)-------------------------------------------|
G#)---------2-2(x7)-0-0(x7)--5-0-4-0-2-0-0----|
D#)-2-2(x7)-----------------------------------|

F#)---------------------------------|
C#)---------------------------------|
G#)---------2-2(x7)-0-0(x7)-5-5-----|
D#)-2-2(x7)---------------------5-5-|

F#)-------------------------------------------|
C#)-------------------------------------------|
G#)---------2-2(x7)-0-0(x7)--5-0-4-0-2-0-0----|
D#)-2-2(x7)-----------------------------------|

F#)--------------------|
C#)--------------------|
G#)--------5(x8)-7(x8)-|
D#)-2(x16)-------------|

Chorus

F#)-------------------------------------|
C#)-------------------------------------|      x2
G#)-------0(x4)-------5(x8)-------------|
D#)-2(x8)-------0(x4)-------5(x4)-7(x4)-|

F#)-----------------------|
C#)-----------------------|
G#)-------0(x4)-------5~--|
D#)-2(x8)-------0(x4)-----|

Pre-Verse

F#)----------------|
C#)----------------|
G#)----------------|
D#)-2-2------0-0---|

F#)-----------------------|
C#)-----------------------|
G#)---------------0-0-----|
D#)-2(x16)-0(x16)-----0-0-|

Verse 2

F#)-------------------------------------------|
C#)-------------------------------------------|
G#)---------2-2(x7)-0-0(x7)--5-0-4-0-2-0-0----|
D#)-2-2(x7)-----------------------------------|

F#)---------------------------------|
C#)---------------------------------|
G#)---------2-2(x7)-0-0(x7)-5-5-5-5-|
D#)-2-2(x7)-------------------------|

F#)-------------------------------------------|
C#)-------------------------------------------|
G#)---------2-2(x7)-0-0(x7)--5-0-4-0-2-0-0----|
D#)-2-2(x7)-----------------------------------|

F#)--------------------|
C#)--------------------|
G#)--------5(x8)-7(x8)-|
D#)-2(x16)-------------|

Chorus

F#)-------------------------------------|
C#)-------------------------------------|      x2
G#)-------0(x4)-------5(x8)-------------|
D#)-2(x8)-------0(x4)-------5(x4)-7(x4)-|

F#)-------------------------|
C#)-------------------------|
G#)-------0(x4)-------5(x8)-|
D#)-2(x8)-------0(x4)-------|

Interlude (She said "don't be afraid...)

F#)---------------|
C#)---------------|      x2
G#)---------------|
D#)-2(x16)-0(x16)-|

Breakdown (The 3rd 'TO ROCKKKKK!')

F#)-----------------|
C#)-----------------|      x4
G#)-----------------|
D#)-2-2-2-2-2-2-2-2-|

Solo

F#)--------------------------|
C#)--------------------------|      x3
G#)--------------------------|
D#)-2(x16)-0(x8)-3(x4)-5(x4)-|

Verse 3

F#)-------------------------------------------|
C#)-------------------------------------------|
G#)---------2-2(x7)-0-0(x7)--5-0-4-0-2-0-0----|
D#)-2-2(x7)-----------------------------------|

F#)---------------------------------|
C#)---------------------------------|
G#)---------2-2(x7)-0-0(x7)-5-5-5-5-|
D#)-2-2(x7)-------------------------|

F#)-------------------------------------------|
C#)-------------------------------------------|
G#)---------2-2(x7)-0-0(x7)--5-0-4-0-2-0-0----|
D#)-2-2(x7)-----------------------------------|

F#)-------------------------------------------|
C#)-------------------------------------------| 
G#)--------5(x8)-7(x8)-4-2-0------------------|        
D#)-2(x16)------------------------------------|         

Chorus

F#)-------------------------------------|
C#)-------------------------------------|      x2
G#)-------0(x4)-------5(x8)-------------|
D#)-2(x8)-------0(x4)-------5(x4)-7(x4)-|

F#)-----------------------|
C#)-----------------------|
G#)-------0(x4)-------5~--|
D#)-2(x8)-------0(x4)-----|

Outro

F#)----------------|
C#)----------------|      x4
G#)----------------|
D#)-2(x16)-0(x16)--|


F#)---------------------|
C#)---------------------|
G#)-0-0-----------------|
D#)-----0-0--2-2--------|

I hope you played this well! If so, congratulations! If not, keep going, you will get it
 eventually!
Have fun, and keep shredding!
Suggest correction
comments
print report bad tab
1 comment total.
0 reply
EricDaCableGuy 10 wrote on February 26 2013, 10:34 pm

Is there a bass tab to Party All Day (F**k all night) anywhere? or does it not even have bass? cuz i have seen him play! haha good tab btw sounds pretty good

guest
You may want to rate the tab now too:
select rating
Please do not post tabs as comments. Select "correction" instead!