Oops, an error
Loading. Please wait.

Fat Girl That She Blows Tab

version 1
version 1

Whole song

23,480 views 1 this week
1 commentread comment
1 2 3 4 5
worth learning
x 6
add to favorites
launch autoscroll
font size
0
reset
how to read this tab
guitar tuner
Autoscroll
slow
fast
+/-
esc
set tempo
stop
Help us to improve Ultimate-Guitar.com Take our survey!
×
Author
-------------------------------------------------------------------------------
                             Fat Girl - Steel Panther
-------------------------------------------------------------------------------
Tabbed by: Reesy666
Email: rees1_6@live.com

Tuning: Eb, Ab, Gb, Db, Bb, eb

First of all, this is not 100%, the main reason i've put up the bits i know
 is to have corrections and updates so i can play it 100% as well ;)

Intro:
e|---------------------------------------|
B|---------------------------------------|
G|---------------------------------------|
D|--2-2-5--2-2-5--2-2-5-2-2-5-2-2-5-7-7--|
A|--0-0-3--0-0-3--0-0-3-0-0-3-0-0-3-5-5--|
E|---------------------------------------|
Intro Solo:
e|-----------------------------------------------------------------------------------|
B|-12h15p12p10--12-15------------------------------------------------12-15-15b-------|
G|---------------------14~~---14h16h4----14-16----------------12h14-----------14-----|
D|------------------------------------16------12~~--12h14----------------------------|
A|-----------------------------------------------------------------------------------|
E|-----------------------------------------------------------------------------------|

e|-------------12-15-15b-----------12-15-15br\--|
B|-------12h15-----------15--12h15--------------|
G|-12h14----------------------------------------|
D|----------------------------------------------|
A|----------------------------------------------|
E|----------------------------------------------|

Verses- You can play this as the root note only or as the power chord- your choice.
  PM--------------------------------|PH
e|----------------------------------|
B|----------------------------------|
G|----------------------------------|
D|----------------------------------|
A|-5-5-5-5-5-5-5-5-5-5-5-5-5-5-5-5--|
E|----------------------------------|Then keep playing D5 until "I wanna take your
ass..",
then play B5 for a couple of bars,
then C5 "Squirt my baby gravy", then back to D5 on "All over your face"

For the Chorus you only need chords so the progression is this:
B5 C5 D5 D5- play the B and C staccato, twice, then finish the 4 bars with full D5s
B5 C5 D5 D5
C5 C5 D5 D5
C5 C5 D5 D5
B5 C5 D5 D5

Then there's a key change just before the solo where you play: (it might not be an A
to start,
 please let me know if it's something different)
e|--------------------------------------|
B|--------------------------------------|
G|--------------------------------------|
D|-2-2-7--2-2-7--2-2-7-2-2-7-2-2-7-9-9--|
A|-0-0-5--0-0-5--0-0-5-0-0-5-0-0-5-7-7--|
E|--------------------------------------|

Solo:
e|--------------------------------------------------------------|
B|--------------------------------------------------------------|
G|------------16--16-14-16---------------14h16p14\13h14p13\9~~--|
D|-----11-14-----------------------11-14------------------------|
A|-/12-------------------------/12------------------------------|
E|--------------------------------------------------------------|
            Hold the bend and tap the 15 whilst still bent, only release after going
to 12.
Tap the 19, then slide your left hand up to the 17 to continue playing that high up.
                 T        T
e|--------------------------------------------17b-16b---------------------------|
B|------9h10h12b15~p12r--19-17~~--16h17p16p14---------16b-17b--16h17p16p14-17b--|
G|-9h11-------------------------------------------------------------------------|
D|------------------------------------------------------------------------------|
A|------------------------------------------------------------------------------|
E|------------------------------------------------------------------------------|

This fast descent of the scale is not perfect, i can't be bothered trying to tab every
note, but throw in some
extra hammer ons using the notes here and you can make you own way down :)
e|-------------17--------------17b--17-16-17-14----14-------------------------------|
B|-16h17p16p14-----16h17p16p14------------------17----17-16-14----------------------|
G|-------------------------------------------------------------16-14-16-14------14--|
D|-------------------------------------------------------------------------16~~-----|
A|----------------------------------------------------------------------------------|
E|----------------------------------------------------------------------------------|

Again, use these notes to blast back up, throwing in any hammer ons
or pull offs you feel like.
e|-------------------------------14---14-16-14-16-17-16-17/19-17-19-17-19/21-22b--|
B|----------------14-15-14-15-17---17---------------------------------------------|
G|----14-16-14-16-----------------------------------------------------------------|
D|-16-----------------------------------------------------------------------------|
A|--------------------------------------------------------------------------------|
E|--------------------------------------------------------------------------------|

Harmonic ending to solo

e|-17-16-17-14-17----17----17----17------------|
B|----------------17----15----14----17p14------|
G|----------------------------------------16~--|
D|---------------------------------------------|
A|---------------------------------------------|
E|---------------------------------------------|

I haven't got round to tabbing the outro solo but i'll get to it soon,
 unless anyone has already worked it out and wants to send it to me ;)

Please let me know if any of it needs correcting and 5 star it please :P
Rees


************************************

| /   slide up
| \   slide down
| h   hammer-on
| p   pull-off
| ~   vibrato
| +   harmonic
| x   Mute note
| b   Bend
| pb  Pre-bend
| br  Bend release
| pbr Pre-bend release
| brb Bend release bend

************************************
Suggest correction
comments
print report bad tab
1 comment total.
0 reply
vbackseatromeov 41 wrote on November 23 2010, 10:42 pm

you couldn't even get the first note. this is a ****ing failure of a tab. completely tone deaf.

guest
You may want to rate the tab now too:
select rating
Please do not post tabs as comments. Select "correction" instead!