Oops, an error
Loading. Please wait.

Girl From Oklahoma Tab

version 1
version 1

Whole song

Interactive

229 views 6 this week
no commentswrite comment
1 2 3 4 5
x 4
add to favorites
launch autoscroll
font size
0
reset
how to read this tab
guitar tuner
Autoscroll
slow
fast
+/-
esc
set tempo
stop
Help us to improve Ultimate-Guitar.com Take our survey!
×
Author
Difficulty
Tuning
intermediate
D# G# C# F# A# D#
Girl From Oklahoma
Steel Panther


Okay, this is the entire song, from A-to-Z! Solo's were tabbed straight from Satchel's
own instructional videos, so they are correct. This song sounds more difficult than it
really is...Satchel just throws a lot of tricky flair on it.
Tuning is Half Step Down, and don't forget the tapping rhythm(XXX),
this took me a Lot of time to tab, so Enjoy!


Tuning: Half-Step Down
Scale: G Major

Tabbed in order, for One guitar.


[Intro Rhythm]

Eb|---------3--------3--------3---------3-------------3---------3------------3------3~~-----|
Bb|---------3--------3--------3---------3-------------3---------3------------3------3~~-----|
Gb|---------0--------0--------0---------0-------------0---------0------------0------0~~-----|
Db|------------X-------X---------X---------X-------------X---------X------------X-----------|
Ab|------------X--2----X---3-----X---------X-------------X---0-----X---3--3-----X---3~~-----|
Eb|--10/-3-----X-------X---------X---3-----X---2---0-----X---------X------------X-----------|


[Solo 1]
(played over Intro)

Eb|-----------------------------------------------------------------------------------------|
Bb|-------8--10---12\8~------8h10p8------8--8------------------3----------------------------|
Gb|--7/9---------------------------9-----------9/6~---------4----4p2p0~~--------------------|
Db|---------------------------------------------------7--5----------------------------------|
Ab|-----------------------------------------------------------------------------------------|
Eb|-----------------------------------------------------------------------------------------|


[Verse 1]

Well,  I bet you never guessed...
Eb|----3--------3---------3--------3---------3---------3--------------3-------2---3~--------|
Bb|----3--------3---------3--------3---------3-----2---2--------------3-------3-----3~------|
Gb|----0--------0---------0--------0---------0-----2---2--------------0-------2-------2~----|
Db|-------X--------X---------X--------X---------X----------X--------------X---0-------------|
Ab|-------X--2-----X--3------X--------X---------X--0-------X---3-3--------X-----------------|
Eb|--3----X--------X---------X--3-----X--2-0----X----------X--------------X-----------------|


[Verse 2]

Your mama's in the parking lot...
Eb|-----3---------3---------3---------3-----------3----------3-----------3-------3~~--------|
Bb|-----3---------3---------3---------3-----------3----------3-----------3-------3~~--------|
Gb|-----0---------0---------0---------0-----------0----------0-----------0-------0~~--------|
Db|--------X---------X----------X--------X------------X---------X------------x--------------|
Ab|--------X---2-----X---3------X--------X------------X---0-----X---3-3------x--------------|
Eb|--3-----X---------X----------X---3----X---2-0------X---------X------------x---3~~--------|


[Verse 3]

                           Ooh, mama's little girl         got all sticky...
Eb|-----3---------3-3----------------------------------3--------3-3-------------------------|
Bb|-----3---------3-3------2--2-------2--2-------2-----3--------3-3------2~~----------------|
Gb|-----0---------0-0------2--2-------2--2-------2-----0--------0-0------2~~----------------|
Db|--------x-----------x----------x----------x------------X----------X----------------------|
Ab|--------x-----------x---0--0---x---0--0---x---0--------X----------X---0~~----------------|
Eb|--0-----x---0-------x----------x----------x-------0----X--0-------X----------------------|


[V1]    Hair on your nipples...
Eb|----3--------3---------3--------3---------3---------3--------------3-------2---3~--------|
Bb|----3--------3---------3--------3---------3-----2---2--------------3-------3-----3~------|
Gb|----0--------0---------0--------0---------0-----2---2--------------0-------2-------2~----|
Db|-------X--------X---------X--------X---------X----------X--------------X---0-------------|
Ab|-------X--2-----X--3------X--------X---------X--0-------X---3-3--------X-----------------|
Eb|--3----X--------X---------X--3-----X--2-0----X----------X--------------X-----------------|


[V2]  What'd you have to do for that backstage pass....
Eb|-----3---------3---------3---------3-----------3----------3-----------3-------3~~--------|
Bb|-----3---------3---------3---------3-----------3----------3-----------3-------3~~--------|
Gb|-----0---------0---------0---------0-----------0----------0-----------0-------0~~--------|
Db|--------X---------X----------X--------X------------X---------X------------x--------------|
Ab|--------X---2-----X---3------X--------X------------X---0-----X---3-3------x--------------|
Eb|--3-----X---------X----------X---3----X---2-0------X---------X------------x---3~~--------|


[Verse 4]

                      So come on pretty baby suck my balls all night...
Eb|-2-3-5-3-2-----------3--------3------3-----2---3~~---------------------------------------|
Bb|-3---------3---------3--------3------3-----3-----3~~-------------------------------------|
Gb|-2-------------------0--------0------0-----2-------2~~-----------------------------------|
Db|-0----------------------X--------X------X--0---------------------------------------------|
Ab|-------------------3----X---2----X--3---X------------------------------------------------|
Eb|------------------------X--------X------X------------------------------------------------|

 The driver says we're leaving                  Spit out that retainer...
Eb|---3--------3--------3---------0~~-----------3--------3-------3-----2---3~~--------------|
Bb|---3--------3--------3-----3-----3~~---------3--------3-------3-----3-----3~~------------|
Gb|---0--------0--------0-----2-------2~~-------0--------0-------0-----2-------2~~----------|
Db|------X--------X--------X--0--------------------X--------X-------X--0--------------------|
Ab|-3----X--2-----X--3-----X------------------3----X---2----X--3----X-----------------------|
Eb|------X--------X--------X-----------------------X--------X-------X-----------------------|


[Verse 5]

Oooh, come on pretty baby suck my balls all night...
Eb|-----------------------------------------------------------------------------------------|
Bb|-----------------------------------------------------------------------------------------|
Gb|-----0-------0------2-----4~~------------------------------------------------------------|
Db|---2---2---4---4--2-4--X--5~~------------------------------------------------------------|
Ab|-3-------5-------------X-----------------------------------------------------------------|
Eb|-----------------------X-----------------------------------------------------------------|


[Solo 2]
(Rhythm guitar plays Verse #2 behind solo)

Eb|--5/7---10--7\5-----5--------------------------------------------------------------------|
Bb|----------------8------5--3----5~~---------------------------3---------------------------|
Gb|---------------------------------------0h2-0----------0--2--4---4p2p0~~------------------|
Db|------------------------------------X--------2--0--2-------------------------------------|
Ab|------------------------------------X----------------------------------------------------|
Eb|------------------------------------X----------------------------------------------------|


[V1]   I wanna thank you for the lovin'...
Eb|----3--------3---------3--------3---------3---------3--------------3-------2---3~--------|
Bb|----3--------3---------3--------3---------3-----2---2--------------3-------3-----3~------|
Gb|----0--------0---------0--------0---------0-----2---2--------------0-------2-------2~----|
Db|-------X--------X---------X--------X---------X----------X--------------X---0-------------|
Ab|-------X--2-----X--3------X--------X---------X--0-------X---3-3--------X-----------------|
Eb|--3----X--------X---------X--3-----X--2-0----X----------X--------------X-----------------|


[V2]  And you won't have to wonder if you caught VD...
Eb|-----3---------3---------3---------3-----------3----------3-----------3-------3~~--------|
Bb|-----3---------3---------3---------3-----------3----------3-----------3-------3~~--------|
Gb|-----0---------0---------0---------0-----------0----------0-----------0-------0~~--------|
Db|--------X---------X----------X--------X------------X---------X------------x--------------|
Ab|--------X---2-----X---3------X--------X------------X---0-----X---3-3------x--------------|
Eb|--3-----X---------X----------X---3----X---2-0------X---------X------------x---3~~--------|


[V3]               Heeeeey    Michael Starr     you motherfucker            Whoa, whoa
Eb|-----3---------3-3---------------------------------3--------3-3--------------------------|
Bb|-----3---------3-3------2--2-------2--2-------2----3--------3-3------2~~-----------------|
Gb|-----0---------0-0------2--2-------2--2-------2----0--------0-0------2~~-----------------|
Db|--------x-----------x----------x----------x-----------X----------X-----------------------|
Ab|--------x-----------x---0--0---x---0--0---x---0-------X----------X---0~~-----------------|
Eb|--0-----x---0-------x----------x----------x------0----X--0-------X-----------------------|


[Verse 4a]

So c'mon pretty baby, suck my balls all night...
Eb|-----3--------3------3-----2---3~~-------------------------------------------------------|
Bb|-----3--------3------3-----3-----3~~-----------------------------------------------------|
Gb|-----0--------0------0-----2-------2~~---------------------------------------------------|
Db|-------X--------X------X---0-------------------------------------------------------------|
Ab|---3---X---2----X--3---X-----------------------------------------------------------------|
Eb|-------X--------X------X-----------------------------------------------------------------|

 I'm hopped up on cialis...                   I know it tastes infected...
Eb|---3--------3--------3---------0~~-----------3--------3-------3-----2---3~~--------------|
Bb|---3--------3--------3-----3-----3~~---------3--------3-------3-----3-----3~~------------|
Gb|---0--------0--------0-----2-------2~~-------0--------0-------0-----2-------2~~----------|
Db|------X--------X--------X--0--------------------X--------X-------X--0--------------------|
Ab|-3----X--2-----X--3-----X------------------3----X---2----X--3----X-----------------------|
Eb|------X--------X--------X-----------------------X--------X-------X-----------------------|


[V5]  Cmon pretty baby, suck my balls all night...
Eb|-----------------------------------------------------------------------------------------|
Bb|-----------------------------------------------------------------------------------------|
Gb|-----0-------0------2-----4~~------------------------------------------------------------|
Db|---2---2---4---4--2-4--X--5~~------------------------------------------------------------|
Ab|-3-------5-------------X-----------------------------------------------------------------|
Eb|-----------------------X-----------------------------------------------------------------|


[Verse 6]

All around the world...there's a hundred billion stupid girls...just like you...
Eb|----1--------1-1------------------------3--------3-3-----2-2-----2-2---------------------|
Bb|---------------------1-1-----1-1--------4--------4-4-----3-3-----3-3---------------------|
Gb|----------------------------------------5--------5-5-----4-4-----4-4-----1-1---1H2P1-----|
Db|-------X----------X--2-2--X--2-2--X-----5--X-----5-5--X--4-4--X--4-4--X--2-2-X-2-2-2-X---|
Ab|----2--X-----2-2--X--3-3--X--3-3--X--3--3--X--3--3-3--X--2-2--X--2-2--X--2-2-X-2-2-2-X---|
Eb|-3--3--X--3--3-3--X-------X-------X--------X----------X-------X-------X------X-------X---|

just begging for nuts to chew...
Eb|-----------------2~~---------------------------------------------------------------------|
Bb|---1-------1-1---3~~---------------------------------------------------------------------|
Gb|---2-------2-2---2~~---------------------------------------------------------------------|
Db|---2--X----2-2---------------------------------------------------------------------------|
Ab|-0----X--0-------------------------------------------------------------------------------|
Eb|------X----------------------------------------------------------------------------------|


[Solo 3]

(Main Solo)
Eb|-----------------------------------------------------------------------------------------|
Bb|-7-8-10-8-7-8-10----7h8p7-----------8\7~---------------------------8---------------------|
Gb|-7-----------------------9-7---4-5--------9-7h9p7----------------------------------------|
Db|-0-----------------------------------------------9-5h7p5---5-5/7-------------------------|
Ab|--------------------------------------------------------7--------------------------------|
Eb|-----------------------------------------------------------------------------------------|

Eb|-----------------------------------7h8h10-------8h10h12-10h12p10-10-12-10----------------|
Bb|-----------------------------7h8h10------8h10h12------------------------12---------------|
Gb|--4p2p0-0--------7h9p7-9/12--------------------------------------------------------------|
Db|-------4-4-2-0---------------------------------------------------------------------------|
Ab|-----------------------------------------------------------------------------------------|
Eb|-----------------------------------------------------------------------------------------|

Eb|-------------------------------------------------------------<15>~~--|
Bb|--10b-10p8--------------------8~~---------------------------<12>~~---|
Gb|----------9-9p7------------4-7-------4h5p4-2-0-2/4\2-0-----<12>~~----|
Db|---------------9-9p7p5--5h7----------0--------------------<12>~~-----|
Ab|---------------------------------------------------------------------------|
Eb|---------------------------------------------------------------------------|


[Vocal Break] (at 2:47)

So come on pretty baby
Suck my balls all night
Your daddy's looking for me
And he's ready to fight...


[V5] Oh, cmon pretty baby...suck my balls all night...
Eb|-----------------------------------------------------------------------------------------|
Bb|-----------------------------------------------------------------------------------------|
Gb|-----0-------0------2-----4~~------------------------------------------------------------|
Db|---2---2---4---4--2-4--X--5~~------------------------------------------------------------|
Ab|-3-------5-------------X-----------------------------------------------------------------|
Eb|-----------------------X-----------------------------------------------------------------|


[V4] So cmon pretty baby...
Eb|-----3--------3------3-----2---3~~-------------------------------------------------------|
Bb|-----3--------3------3-----3-----3~~-----------------------------------------------------|
Gb|-----0--------0------0-----2-------2~~---------------------------------------------------|
Db|-------X--------X------X---0-------------------------------------------------------------|
Ab|---3---X---2----X--3---X-----------------------------------------------------------------|
Eb|-------X--------X------X-----------------------------------------------------------------|


Eb|---3--------3--------3---------0~~-----------3--------3-------3-----2---3~~--------------|
Bb|---3--------3--------3-----3-----3~~---------3--------3-------3-----3-----3~~------------|
Gb|---0--------0--------0-----2-------2~~-------0--------0-------0-----2-------2~~----------|
Db|------X--------X--------X--0--------------------X--------X-------X--0--------------------|
Ab|-3----X--2-----X--3-----X------------------3----X---2----X--3----X-----------------------|
Eb|------X--------X--------X-----------------------X--------X-------X-----------------------|


[V5]
Eb|-----------------------------------------------------------------------------------------|
Bb|-----------------------------------------------------------------------------------------|
Gb|-----0-------0------2-----4~~------------------------------------------------------------|
Db|---2---2---4---4--2-4--X--5~~------------------------------------------------------------|
Ab|-3-------5-------------X-----------------------------------------------------------------|
Eb|-----------------------X-----------------------------------------------------------------|


[V4] So cmon pretty baby...
Eb|-----3--------3------3-----2---3~~-------------------------------------------------------|
Bb|-----3--------3------3-----3-----3~~-----------------------------------------------------|
Gb|-----0--------0------0-----2-------2~~---------------------------------------------------|
Db|-------X--------X------X---0-------------------------------------------------------------|
Ab|---3---X---2----X--3---X-----------------------------------------------------------------|
Eb|-------X--------X------X-----------------------------------------------------------------|


Eb|---3--------3--------3---------0~~-----------3--------3-------3-----2---3~~--------------|
Bb|---3--------3--------3-----3-----3~~---------3--------3-------3-----3-----3~~------------|
Gb|---0--------0--------0-----2-------2~~-------0--------0-------0-----2-------2~~----------|
Db|------X--------X--------X--0--------------------X--------X-------X--0--------------------|
Ab|-3----X--2-----X--3-----X------------------3----X---2----X--3----X-----------------------|
Eb|------X--------X--------X-----------------------X--------X-------X-----------------------|


[V5] So cmon pretty baby...
Eb|-----------------------------------------------------------------------------------------|
Bb|-----------------------------------------------------------------------------------------|
Gb|-----0-------0------2-----4~~------------------------------------------------------------|
Db|---2---2---4---4--2-4--X--5~~------------------------------------------------------------|
Ab|-3-------5-------------X-----------------------------------------------------------------|
Eb|-----------------------X-----------------------------------------------------------------|

[Ending Verse]
Eb|------------------------3~~--------------------------------------------------------------|
Bb|------------------------3~~--------------------------------------------------------------|
Gb|-----0-------0------2---0~~--------------------------------------------------------------|
Db|---2---2---4---4--2-4---0~~--------------------------------------------------------------|
Ab|-3-------5--------------2~~--------------------------------------------------------------|
Eb|------------------------3~~--------------------------------------------------------------|


END.

Lyrics


"Girl From Oklahoma"
By: Steel Panther

Well, I bet you never guessed
When you came to the show
You'd be getting on the bus with me
And doing some blow

Your mama's in the parking lot
Looking for you
She's gonna find you when I'm done
All covered with goo

Ooh, mama's little girl got all sticky

Hair on your nipples
Zits on your box
In Oklahoma city
You're considered a fox

What did you have to do
For that backstage pass
'Cause I found a Poison laminate
Inside of your ass

So come on pretty baby
Suck my balls all night
The driver says we're leaving
Come morning light

Spit out that retainer
And do me right
Oooh, come on pretty baby
Suck my balls all night

Yeah that's it
Aah, you're a good girl

I wanna thank you for the loving
That you spread over me
I'll be singing about you
On the next CD

And you won't have to wonder
If you caught VD
You'll be screaming my name
When you sit down to pee

Hey Michael Starr you motherfucker
Whoa, whoa

So come on pretty baby
Suck my balls all night
I'm hopped on Cialis
And you're high as a kite

I know it tastes infected
But I think it's alright
Oooh, come on pretty baby
Suck my balls all night

All around the world
There's a hundred billion stupid girls
Just like you
Just begging for nuts to chew

So come on pretty baby
Suck my balls all night
Your daddy's looking for me
And he's ready to fight

The driver says we're leaving
Come morning light
Oooh, come on pretty baby
Suck my balls all night

So come on pretty baby
Suck my balls all night
I'm hopped up on Cialis
And you're high as a kite

I know it tastes infected
But I think it's alright
Oooh, come on pretty baby
Suck my balls all night

Come on pretty baby
Suck my balls all night
The driver says we're leaving
Come morning light

Spit out that retainer
And do me right
Oooh, come on pretty baby
Suck my balls all night

So come on pretty baby
Suck my balls all night


************************************

| XXX   rhythm tap
| \,/   Slide
| h     hammer on
| p     pull off
| ~     let it ring
| b     bend
| *     harmonics

************************************
Suggest correction
comments
print report bad tab
guest
You may want to rate the tab now too:
select rating
Wanna post a correction for this tab? Suggest correction