Oops, an error
Loading. Please wait.

Gold Digging Whore tab

5,437 views 15 this week
1 commentread comment
1 2 3 4 5
x 7
add to favorites
×
Save as Personal and add changes to this tab that will be seen only by you. Learn more ›
×
You can save this tab as Personal to edit and correct it or add notes. All changes will be seen only by you. Learn more »
launch autoscroll
font size
0
reset
how to read this tab
guitar tuner
edit
Autoscroll
slow
fast
+/-
esc
set tempo
stop
Song: Gold Digging Whore
Band: Steel Panther
Album: Balls Out
Tabbed by: iloveamanda12
------------------

Intro:

gtr 1

d#|-----------|
A#|-3---------|
F#|-2-2-4-----|
C#|-0-2-4-2-4-|
G#|---0-2-2-4-|
D#|-------0-2-|

=

gtr 1
      .       x2
d#|-----------|
A#|-----------|
F#|-----------|
C#|-4---4-2h4-|
G#|-4---4-2h4-|
D#|-2-2-2-2---|

gtr 1
              x2
d#|-----------|
A#|-----------|
F#|-----------|
C#|-----------|
G#|-----------|
D#|-----------|

=

gtr 1
      .          .
d#|----------------------|
A#|----------------------|
F#|----------------------|
C#|-4---4-2h4--4---4-2h4-|
G#|-4---4-2h4--4---4-2h4-|
D#|-2-2-2-2----2-2-2-2---|

gtr 2

d#|19b21-19v------------------|
A#|---------------21----21-19~|
F#|-----------/18----18-------|
C#|---------------------------|
G#|---------------------------|
D#|---------------------------|

==========

Verse 1 ("Don't you go buying her...")

gtr 1
                   . .       .                      . .       .       x2
d#|-------------------------------------------------------------------|
A#|---7---7---7------------------------7---7---7----------------------|
F#|-4-6-4-6-4-6--------4-------------4-6-4-6-4-6--------4-------------|
C#|-4-4-4-4-4-4--2-----4-2-4---4-2h4-4-4-4-4-4-4--2-----4-2-4---4-2h4-|
G#|-2-4-2-4-2-4--2-----2-2-4---4-2h4-2-4-2-4-2-4--2-----2-2-4---4-2h4-|
D#|--------------0-0-0---0-2-2-2-2----------------0-0-0---0-2-2-2-2---|

==========

Chorus 1 ("She's a gold-digging whore")

gtr 1
                         . . . . . . . . . . . .
d#|-------------------------------------------------|
A#|-----------3-------------------------------------|
F#|-4-4-4-4---2--2----------------------------------|
C#|-4-4-4-4---0--2--2--4-------------------------2h4|
G#|-2-2-2-2------0--2--4-------------------------2h4|
D#|-----------------0--2-2-2-2-2-2-2-2-2-2-2-2-2-2--|

==========

Verse 2 ("Don't you go sayin'...")

gtr 1
                   . .       .                      . .       .
d#|---------------------------------------------------------------------------------------|
A#|---7---7---7------------------------7---7---7------------------------------------------|
F#|-4-6-4-6-4-6--------4-------------4-6-4-6-4-6--------4-------------------4-------------|
C#|-4-4-4-4-4-4--2-----4-2-4---4-2h4-4-4-4-4-4-4--2-----4-2-4---4-2h4-2-----4-2-4---4-2h4-|
G#|-2-4-2-4-2-4--2-----2-2-4---4-2h4-2-4-2-4-2-4--2-----2-2-4---4-2h4-2-----2-2-4---4-2h4-|
D#|--------------0-0-0---0-2-2-2-2----------------0-0-0---0-2-2-2-2---0-0-0---0-2-2-2-2---|

gtr 2
                 \/                                 |repeat lick x 3  |
d#|-------------------------------------------------------------------------14------------------------------|
A#|--------------15----------------------------------14h17p14h17p14-19\-------17-16-14----------------------|
F#|-----------------------------------------------------------------------------------17-14-13--------------|
C#|-------------------------------------------------------------------------------------------16-14-13------|
G#|---------------------------------------------------------------------------------------------------16-15~|
D#|---------------------------------------------------------------------------------------------------------|

==========

Chorus 2 ("She's a gold-digging whore...")

d#|-------------|
A#|-------------|
F#|-4-4-4-4-4-4-|
C#|-4-4-4-4-4-4-|
G#|-2-2-2-2-2-2-|
D#|-------------|

=

      .                                                x2
d#|----------------------------------------------------|
A#|-------------3--3-3--3-3----------------------------|
F#|-------------2--2-2--2-2--2--2-2--2-2--2-4-4-4-4-4-4|
C#|-4-----------0--0-0--0-0--2--2-2--2-2--2-4-4-4-4-4-4|
G#|-4---2-5-4-2--------------0--0-0--0-0--0-2-2-2-2-2-2|
D#|-2-2------------------------------------------------|

=
         
               . . . . . . . . . . . .
d#|---------------------------------------|
A#|-3-------------------------------------|
F#|-2--2----------------------------------|
C#|-0--2--2--4-------------------------2h4|
G#|----0--2--4-------------------------2h4|
D#|-------0--2-2-2-2-2-2-2-2-2-2-2-2-2-2--|

==========

Pre-Solo ("There's a half a dozen...")

             .   .   .                    . . .
d#|------------------------------------------------|
A#|------------------------------------------------|
F#|-------------------------------4-----4-------4/6|
C#|-6--2--5--------1--------6--2--4-----4-------4/6|
G#|-6--2--5----4-------4----6--2--2-----2-2-2-2-2/4|
D#|-4--0--3--2---2---2---2--4--0-------------------|

==========

Solo Rhythm

gtr 1 (rhythm)
                                            x3
d#|-----------------------------------------|
A#|-5---------4---------2---------5---------|
F#|-6---------4---------2---------6---------|
C#|-6---------4---------2---------6---------|
G#|-4-4-4-4-4-4-4-4-4-4-4-4-4-4-4-4-4-4-4-4-|
D#|-----------------------------------------|

=

gtr 1 (cont'd)

d#|------------------------------------|
A#|------------------------------------|
F#|------------------------------------|
C#|-6----7-6-4-6----7-6-4-6----7-6-4-2-|
G#|-6----7-6-4-6----7-6-4-6----7-6-4-2-|
D#|-4----5-4-2-4----5-4-2-4----5-4-2-0-|

======

Solo

gtr 2

d#|----------9~----/12-11-9~----7h9-------|
A#|-----/9--------------------------9p7\5~|
F#|/6~------------------------------------|
C#|---------------------------------------|
G#|---------------------------------------|
D#|---------------------------------------|

=

gtr 2 (cont'd)

d#|-4-9--------------------------------------|
A#|-----5-9----------------------------------|
F#|---------6-9-------------6-9-8~----\18-16~|
C#|-------------6-9-----6-9------------------|
G#|-----------------6-7----------------------|
D#|------------------------------------------|

=

gtr 2 (cont'd)

d#|-14-16-16br-16-14-----16---------|
A#|------------------16b----17b-17~-|
F#|---------------------------------|
C#|---------------------------------|
G#|---------------------------------|
D#|---------------------------------|

=

gtr 2 (cont'd)

d#|-----------------16-19-21~----9h12p9-----------------|
A#|-16b-16----16-17---------------------12p9------------|
F#|--------18--------------------------------12p11p9----|
C#|--------------------------------------------------11-|
G#|-----------------------------------------------------|
D#|-----------------------------------------------------|

=

gtr 2 (cont'd)

d#|--------------------------------|
A#|-8h9p8---------------------13~--|
F#|-------11-10-9-8----8-9/13------|
C#|-----------------11-------------|
G#|--------------------------------|
D#|--------------------------------|

=

gtr 2 (cont'd)

d#|-------------------------------16br-14-16br-16p14----------------------------------|
A#|-13br-11-13~----16br-14-16~-----------------------17-16-14-------------------------|
F#|-----------------------------------------------------------17-14-13----------------|
C#|--------------------------------------------------------------------16-14-13-------|
G#|-----------------------------------------------------------------------------16-15~|
D#|-----------------------------------------------------------------------------------|

==========

"G-O-L-D--D-I-GG-I-N-G--W-H-O-R--E!"

                         x2
d#|----------------------|
A#|-------------------3*-|
F#|-----2*------4-----2*-|
C#|-4*--2*--2*--4--4*-0*-|
G#|-4*--0*--2*--2--4*----|
D#|-2*------0*-----2*----|

=

d#|-------------------|
A#|-------------------|
F#|-----2*------4-----|
C#|-4*--2*--2*--4--4*-|
G#|-4*--0*--2*--2--4*-|
D#|-2*------0*-----2*-|


==========

Chorus 3 ("She's a gold-digging whore...")
      
d#|-------------|
A#|-------------|
F#|-4-4-4-4-4-4-|
C#|-4-4-4-4-4-4-|
G#|-2-2-2-2-2-2-|
D#|-------------|

=

      .                                                x2
d#|----------------------------------------------------|
A#|-------------3--3-3--3-3----------------------------|
F#|-------------2--2-2--2-2--2--2-2--2-2--2-4-4-4-4-4-4|
C#|-4-----------0--0-0--0-0--2--2-2--2-2--2-4-4-4-4-4-4|
G#|-4---2-5-4-2--------------0--0-0--0-0--0-2-2-2-2-2-2|
D#|-2-2------------------------------------------------|

=

               .          .       x2
d#|-------------------------------|
A#|-3-----------------------------|
F#|-2--2--------------------------|
C#|-0--2--2--4---4-2h4--4---4-2h4-|
G#|----0--2--4---4-2h4--4---4-2h4-|
D#|-------0--2-2-2-2----2-2-2-2---|

==========

   "G O L D  DIGGING  W  H O R     E!"

d#|---------------------------------|
A#|---------------------------------|
F#|----------2222222*----4----------|
C#|-4*4*4*4*-2222222*-22-4-2-4------|
G#|-4*4*4*4*-0000000*-22-2-2-4------|
D#|-2*2*2*2*----------00---0-2------|

==========================================================================================================

LEGEND
------

Layout Notation:

====== - Section, such as Bridge or solo, closed (after correct number of plays, move to the next section)
=      - Section, such as Bridge or solo, still active: after correct number of plays, move to next bar.
x(#)   - Repeat as indicated (x3 indicates repeating the riff twice more, etc.)

Grid Notation:

~      - vibrato (bend the string and release rapidly)
*      - deaden note (stop notes from ringing)
X      - dead string (Mute string with your fretting hand)
{}     - pinch harmonic (bring the picking thumb across the string after picking note)
[]     - natural harmonic (lightly rest fretting finger on string, then pick)

/      - slide up (higher in pitch)(2/4 indicates fretting the 2nd fret, then sliding to the 4th without
                a 2nd pick-stroke)
\      - slide down (lower in pitch)(4/2 indicates fretting the 4th fret, then sliding to the 2nd without
                a 2nd pick-stroke)
b      - bend ("16b" would indicate bending the 16th fret)
r      - release bend ("16br" would indicate bending the 16th fret up, then releasing back to neutral position)
br     - bend, then release
brp    - bend, release, then pull; usually in a fluid motion
h      - hammer-on to indicated fret (0h2 indicates picking open string, then fretting the 2nd fret without
                a second pick-stroke)
p      - pull-off to indicated fret (12p10 indicates picking the twelfth fret, then lifting your finger to
                a pre-fretted 10th fret without a second pickstroke)
pb     - pre-bend, in some cases signifies a previous bend being held (bend the string before picking)
pbr    - pre-bend release (bend the string before picking, then release string after picking)
T      - Tap note with pick or a picking hand finger, usually in a quick hammer-on/pull-off section
TR     - trill (10TR12 would indicate to hammer and pull continually between the two specified notes)
trm    - tremolo pick (pick very rapidly)


Above Grid Notation:

.      - palm mute (mute the strings with your picking hand while picking)
\/     - use tremolo bar ("whammy" bar)(either raise or lower the pitch dramatically)
^      - Upstroke (use an up pick-stroke)

            
            
Suggest correction
Creating personal tab
Creating personal tab
You can edit any tab online and save it as your Personal.

You can edit, replace or remove any tab part or add personal notes – all changes will be seen only by you.

Personal tabs can be accessed anytime from any device, even offline.
Learn more »
comments
print report bad tab
1 comment total.
0 reply
iloveamanda12 937 Sep 02, 2013 09:46 AM

I'm good at screwing this tabbing up. Part C SHOULD read:

e|------------|------------|
B|---7---7---7|------------|
G|-4-6-4-6-4-6|-------4----|
D|-4-4-4-4-4-4|-2-----4-2-4|
A|-2---2---2--|-2-----2-2-4|
E|------------|-0-0-0---0-2|

guest
You may want to rate the tab now too:
select rating
Wanna post a correction for this tab? Suggest correction