Oops, an error
Loading. Please wait.

If You Really Really Love Me tab

version 1
version 1

Whole song

Interactive

67 views 12 this week
no commentswrite comment
1 2 3 4 5
3 more votes to show rating
add to favorites
×
Save as Personal and add changes to this tab that will be seen only by you. Learn more ›
×
You can save this tab as Personal to edit and correct it or add notes. All changes will be seen only by you. Learn more »
launch autoscroll
font size
0
reset
how to read this tab
guitar tuner
edit
Autoscroll
slow
fast
+/-
esc
set tempo
stop
Tuning: Half-Step Down

[Intro]
If you really really really love me, then you really really really gotta show me
Eb|-----------------------------------------------------------------------------------------|
Bb|-----------------------------------------------------------------------------------------|
Gb|--4--------4--------4--------4-----------------------------------------------------------|
Db|--4--------2--------2--------2-----------------------------------------------------------|
Ab|--2--------0--------2--------0-----------------------------------------------------------|
Eb|-----------------------------------------------------------------------------------------|

Don't whine when I put it in your booty, or if I'm up all night playing Call of Duty
Eb|-----------------------------------------------------------------------------------------|
Bb|-----------------------------------------------------------------------------------------|
Gb|--4--------4--------4--------4-----------------------------------------------------------|
Db|--4--------2--------2--------2-----------------------------------------------------------|
Ab|--2--------0--------2--------0-----------------------------------------------------------|
Eb|-----------------------------------------------------------------------------------------|

Never hassle me because I'm unemployed, if I sleep all day don't get annoyed
Eb|-----------------------------------------------------------------------------------------|
Bb|-----------------------------------------------------------------------------------------|
Gb|--4------7------9------4-----------------------------------------------------------------|
Db|--4------7------9------4-----------------------------------------------------------------|
Ab|--2------5------7------2-----------------------------------------------------------------|
Eb|-----------------------------------------------------------------------------------------|

Then I know that you really really really love me....If you really really really love me
Eb|-----------------------------------------------------------------------------------------|
Bb|-----------------------------------------------------------------------------------------|
Gb|--4-----4-----4------------4-----4~~~----------------------------------------------------|
Db|--2-----2-----4------------2-----2~~~----------------------------------------------------|
Ab|--4-----0-----2------------4-----0~~~----------------------------------------------------|
Eb|-----------------------------------------------------------------------------------------|

If you really truly want to make me feel nice, make it so I don't ever have to ask twice
Eb|-----------------------------------------------------------------------------------------|
Bb|-----------------------------------------------------------------------------------------|
Gb|--4--------4--------4--------4-----------------------------------------------------------|
Db|--4--------2--------2--------2-----------------------------------------------------------|
Ab|--2--------0--------2--------0-----------------------------------------------------------|
Eb|-----------------------------------------------------------------------------------------|

Let me have the keys to your Mercedes, don't get mad when I bring home some ladies
Eb|-----------------------------------------------------------------------------------------|
Bb|-----------------------------------------------------------------------------------------|
Gb|--4--------4--------4--------4-----------------------------------------------------------|
Db|--4--------2--------2--------2-----------------------------------------------------------|
Ab|--2--------0--------2--------0-----------------------------------------------------------|
Eb|-----------------------------------------------------------------------------------------|

If I get fat and look like an ape, lie to me and tell me I'm in great shape
Eb|-----------------------------------------------------------------------------------------|
Bb|-----------------------------------------------------------------------------------------|
Gb|--4------7------9------4-----------------------------------------------------------------|
Db|--4------7------9------4-----------------------------------------------------------------|
Ab|--2------5------7------2-----------------------------------------------------------------|
Eb|-----------------------------------------------------------------------------------------|

Then I'll know that you really really really...Really really really love me
Eb|-----------------------------------------------------------------------------------------|
Bb|-----------------------------------------------------------------------------------------|
Gb|--4-----4-----4--------------------------------------------------------------------------|
Db|--2-----2-----4--------------------------------------------------------------------------|
Ab|--4-----0-----2--------------------------------------------------------------------------|
Eb|-----------------------------------------------------------------------------------------|

[DISTORTION RIFF ENTERS]
If you wonder what I did with the Rent...
Eb|-----------------------------------------------------------------------------------------|
Bb|-----------------------------------------------------------------------------------------|
Gb|--------7-7---------7-7-------------------------------4-4-4-4----4-----------------------|
Db|--5-5---7-7---5-5---7-7---7-7---2-2-----7-7---2-2-----4-4-4-4-2--4----7--2---------------|
Ab|--5-5---5-5---5-5---5-5---7-7---2-2-----7-7---2-2-----2-2-2-2-2--2----7--2---------------|
Eb|--3-3---------3-3---------5-5---0-0-3B--5-5---0-0-3B----------0-------5--0---------------|

If I have sex with your friend Melanie, don't act like it's some kind of felony
Eb|-----------------------------------------------------------------------------------------|
Bb|-----------------------------------------------------------------------------------------|
Gb|--4--------4--------4--------4-----------------------------------------------------------|
Db|--4--------2--------2--------2-----------------------------------------------------------|
Ab|--2--------0--------2--------0-----------------------------------------------------------|
Eb|-----------------------------------------------------------------------------------------|

It's not uncommon for this kind of infidelity, it happens to a lot of guys
like Tiger Woods and me
Eb|-----------------------------------------------------------------------------------------|
Bb|-----------------------------------------------------------------------------------------|
Gb|--4--------4--------4--------4-----------------------------------------------------------|
Db|--4--------2--------2--------2-----------------------------------------------------------|
Ab|--2--------0--------2--------0-----------------------------------------------------------|
Eb|-----------------------------------------------------------------------------------------|

Just be happy that I'm hung like a horse, and you get to ride the pony of course
Eb|-----------------------------------------------------------------------------------------|
Bb|-----------------------------------------------------------------------------------------|
Gb|--4------7------9------4-----------------------------------------------------------------|
Db|--4------7------9------4-----------------------------------------------------------------|
Ab|--2------5------7------2-----------------------------------------------------------------|
Eb|-----------------------------------------------------------------------------------------|

Cause I'm really really really, really really really...Really really fond of you too
Eb|-----------------------------------------------------------------------------------------|
Bb|-----------------------------------------------------------------------------------------|
Gb|--4-----4-----4--------------------------------------------------------------------------|
Db|--2-----2-----4--------------------------------------------------------------------------|
Ab|--4-----0-----2--------------------------------------------------------------------------|
Eb|-----------------------------------------------------------------------------------------|

[2ND DISTORTION RIFF ENTERS]
(slight variation from 1st one)
Eb|-----------------------------------------------------------------------------------------|
Bb|-----------------------------------------------------------------------------------------|
Gb|--------7--7~~---------7--7~~---------------------------------4-4-4-4----4---------------|
Db|--5-5---7--7~~---5-5---7--7~~---7-7---2--2~~---7-7---2--2~~---4-4-4-4-2--4----7--2-------|
Ab|--5-5---5--5~~---5-5---5--5~~---7-7---2--2~~---7-7---2--2~~---2-2-2-2-2--2----7--2-------|
Eb|--3-3------------3-3------------5-5---0--0~~---5-5---0--0~~-----------0-------5--0-------|

=============================================================================================
[Solo]
Eb|-19b(20)-17~~---14b(15)14-12--12/10--10--------------------------------------------------|
Bb|----------------------------15-----------------------------------------------------------|
Gb|-----------------------------------12--12-11-9----9--------------------------------------|
Db|-----------------------------------------------12---12-11-9------------------------------|
Ab|------------------------------------------------------------12~~-------------------------|
Eb|-----------------------------------------------------------------------------------------|

Eb|-----------------------------------------17h19b(20)-h21-p19b(20)-h21-p19~~---------------|
Bb|------------------------------------17h19------------------------------------------------|
Gb|-------------------------------14h16-----------------------------------------------------|
Db|--------------------------14h16----------------------------------------------------------|
Ab|-14-12-14b(15)-14~~--14/16---------------------------------------------------------------|
Eb|-----------------------------------------------------------------------------------------|

(NOTE: For the very last bit, all you're doing is bending UP on
the 19th fret, then while you're at the TOP of that bend,
Tap and Hold the 21st Fret with your Right Index Finger, and let the Bend
back down, and release your index finger....that's the way Satchel does it.)
=============================================================================================

[RHYTHM BEHIND SOLO]
Eb|-----------------------------------------------------------------------------------------|
Bb|---------------------------------------------------------0~~-----------------------------|
Gb|---------------------------------------------------------4~~-----------------------------|
Db|--7-7---5-5---12-12---2-2-----7-7---5-5---12-12---2-2----4~~-----------------------------|
Ab|--7-7---5-5---12-12---2-2-----7-7---5-5---12-12---2-2----2~~-----------------------------|
Eb|--5-5---3-3---10-10---0-0-----5-5---3-3---10-10---0-0----0~~-----------------------------|

If you really really really love me, you'd never make me hang out with your family
Eb|-----------------------------------------------------------------------------------------|
Bb|-----------------------------------------------------------------------------------------|
Gb|--4--------4--------4--------4-----------------------------------------------------------|
Db|--4--------2--------2--------2-----------------------------------------------------------|
Ab|--2--------0--------2--------0-----------------------------------------------------------|
Eb|-----------------------------------------------------------------------------------------|

Your mom sucks and your dad really hates me, when I try to borrow money he berates me
Eb|-----------------------------------------------------------------------------------------|
Bb|-----------------------------------------------------------------------------------------|
Gb|--4--------4--------4--------4-----------------------------------------------------------|
Db|--4--------2--------2--------2-----------------------------------------------------------|
Ab|--2--------0--------2--------0-----------------------------------------------------------|
Eb|-----------------------------------------------------------------------------------------|

So Molly thinks that I'm too old for you, cause you're 19 and I'm 52
Eb|-----------------------------------------------------------------------------------------|
Bb|-----------------------------------------------------------------------------------------|
Gb|--4------7------9------4-----------------------------------------------------------------|
Db|--4------7------9------4-----------------------------------------------------------------|
Ab|--2------5------7------2-----------------------------------------------------------------|
Eb|-----------------------------------------------------------------------------------------|

He can't see that your really really really, really really really love me
Eb|-----------------------------------------------------------------------------------------|
Bb|-----------------------------------------------------------------------------------------|
Gb|--4-----4-----4--------------------------------------------------------------------------|
Db|--2-----2-----4--------------------------------------------------------------------------|
Ab|--4-----0-----2--------------------------------------------------------------------------|
Eb|-----------------------------------------------------------------------------------------|

You really really really really, really really really love me
Eb|-----------------------------------------------------------------------------------------|
Bb|-----------------------------------------------------------------------------------------|
Gb|--4-----4-----4--------------------------------------------------------------------------|
Db|--2-----2-----4--------------------------------------------------------------------------|
Ab|--4-----0-----2--------------------------------------------------------------------------|
Eb|-----------------------------------------------------------------------------------------|

If you really really love me...
Eb|-----------------------------------------------------------------------------------------|
Bb|-----------------------------------------------------------------------------------------|
Gb|---4-----4~~~----------------------------------------------------------------------------|
Db----2-----2~~~----------------------------------------------------------------------------|
Ab|---4-----0~~~----------------------------------------------------------------------------|
Eb|-----------------------------------------------------------------------------------------|

************************************

| b  Bend
| ~  Vibrato
| /  Slide up
| h  Hammer-on
| p  Pull-off
| )
| B
| b(

************************************

            
            
Suggest correction
Creating personal tab
Creating personal tab
You can edit any tab online and save it as your Personal.

You can edit, replace or remove any tab part or add personal notes – all changes will be seen only by you.

Personal tabs can be accessed anytime from any device, even offline.
Learn more »
Give kudos to tab author, rate the tab!
1 2 3 4 5
comments
print report bad tab
guest
You may want to rate the tab now too:
select rating
Wanna post a correction for this tab? Suggest correction