Oops, an error
Loading. Please wait.

Just Like Tiger Woods Tab

version 3
version 3

Whole song

Interactive

3,656 views 6 this week
1 commentread comment
1 2 3 4 5
please rate
add to favorites
launch autoscroll
font size
0
reset
how to read this tab
guitar tuner
Autoscroll
slow
fast
+/-
esc
set tempo
stop
Help us to improve Ultimate-Guitar.com Take our survey!
×
Contributor
Difficulty
Tuning
intermediate
D# G# C# F# A# D#
-------------------------------------------------------------------------------
                             Just Like Tiger Woods - Steel Panther
-------------------------------------------------------------------------------
Tabbed by: Kiaran Jay

Tuning: Half Step Down

- If anyone wants any of the guitar harmonies tabbed out, leave a comment either on this tab
or on my profile requesting it!

Intro 

I have done 2 variations of the intro just because I'm not sure which one is the 
one Satchel actually plays, but they are essentially the same, just one involves
a bit of a stretch whereas the other one does not. They might both be wrong, who knows!

Variation 1 - (This is played under the chorus as well)
e||-----------------------------------------------------||
B||o---5--------5--------5--------5--------7-----------o||
G||------8--------8--------8--------8--------8-----8----||x 8
D||---------9--------9--------9--------9--------9-------||
A||o---------------------------------------------------o||
E||-----------------------------------------------------||

Variation 2
e||-----------------------------------------------------||
B||o-----------------------------------7---------------o||
G||----9-8-----9-8-----9-8-----9-8-------8---8----------||x 8
D||---------9-------9-------9-------9------9------------||
A||o---------------------------------------------------o||
E||-----------------------------------------------------||


Intro Chords X2  
e||-----------------------------------------------------||--------|
B||o---------------------------------------------------o||--------|
G||----4-----------2--------------4--2----------4-------||--------|
D||----4-----------2--2-----------4--2----------4--2----||--4--4--|
A||o---2-----------0--2-----------2--0----------2--2---o||--4--4--|
E||-------------------0----------------------------0----||--2--2--|


Intro Solo
e|---------------------------------------------------------------------------|
B|---19~------17-16--17-16---------------------------------------------------|
G|-16----------------------16~-----------------------------------------------|
D|---------------------------------13-14/16-\14--13--------------------------|
A|---------------------------------------------------16--14\9----11~----9----|
E|---------------------------------------------------------------------------|


Verse (Palm Mute the Low E String)
e|----------------------------------------------------------|
B|----------------------------------------------------------|
G|-----4---4-----3-----3---3h1-------4---4-----6----6--6p4--|x 3
D|-----2---2-----2-----2---2---------4---4-----4----4--4----|
A|----------------------------------------------------------|
E|-0-0---0---0-0---0-0---0-------4-4---4---4-4--------------|


Verse - Last Part 
e|------------------------------------------------------|
B|------------------------------------------------------|
G|-----4---4-----3-----3---3h4------6-------------------| 
D|-----2---2-----2-----2---2--------6---4h6-4---4-------|
A|----------------------------------4---------6---6-4---|
E|-2-2---2---2-2---2-2---2----------------------------6-|


Chorus
e|---------------------------------------------------------------------|
B|---------------------------------------------------------------------|
G|----4-----------2--------------4--2----------4-----------------------|
D|----4-----------2--2-----------4--2----------4--2----4h6-4---4-------|
A|----2-----------0--2-----------2--0----------2--2----------6---6-4---|
E|-------------------0----------------------------0------------------6-|


e|---------------------------------------------------------------------|
B|---------------------------------------------------------------------|
G|----4-----------2--------------4--2----------4-------------4---------|
D|----4-----------2--2-----------4--2----------4--2----------4---------|
A|----2-----------0--2-----------2--0----------2--2----------2---------|
E|-------------------0----------------------------0--------------------|


Verse 2
The Second Verse Is the Same as before, it just has some lead licks which I 
will try to tab out here.

Lick 1 (A bit of whammy on the octave chords sounds quite good)
e|------------------16-------------------------------------------------------|
B|---------------------14b16br14p12-14---------------------------------------|
G|---11/13\11---------------------------13~----------------------------------|
D|---------------------------------------------------------------------------|
A|---9-/11\9-----------------------------------------------------------------|
E|---------------------------------------------------------------------------|


Lick 2 - The '+' sign indicates a pinch harmonic, although it isn't that necessary -
e|---------------------------------------------------------------------------|
B|---------------------------------------------------------------------------|
G|----------+4~------------+4------------------------------------------------|
D|---4--6-6-----+6-------4----+6~--------------------------------------------|
A|--------------------6------------------------------------------------------|
E|---------------------------------------------------------------------------|

Lick 3
e|---------------------------------------------------------------------------|
B|---------------------------------------------------------------------------|
G|--6b8-------4h6p4\3-4---3--------------------------------------------------|
D|----------------------6---4-6-------4~-------------------------------------|
A|------------------------------4--------------------------------------------|
E|---------------------------------7-----------------------------------------|

Chorus 2 - (Just the same as the first)

Middle Section - (No Guitar)

Pre-Solo - This section is very similar to the verses with a few minor differences, 
it is also what is playing underneath the solo
e|---------------------------------------------------------------------------|
B|---------------------------------------------------------------------------|
G|--4--4--------4---3---3h4-------4---4-----6--6--6p4------------------------|
D|--2--2--------4---4---4---------4---4-----4--4--4--------------------------|
A|---------------------------------------------------------------------------|
E|-------0-0-0----2---2-------4-4---4---4-4----------------------------------|


Solo
e|-------------------------------------------------------12------------------|
B|------------------------------------------12--14b16--------14~---12-11-12--|
G|-------------------8-8--h9p8----8-9-11/13----------------------------------|
D|---8h9p8----8-9-11-----------11--------------------------------------------|
A|---------11----------------------------------------------------------------|
E|---------------------------------------------------------------------------|

e|-----------------------11----11/14-----16-18b19--18p16-19-18~--16h18p16\14-|
B|--14--12-11-------7/9-----9---------16-------------------------------------|
G|------------13~------------------------------------------------------------|
D|---------------------------------------------------------------------------|
A|---------------------------------------------------------------------------|
E|---------------------------------------------------------------------------|

e|-16--16b18-18br16~-------19-16---------------------------------------------|
B|-------------------------------19-16---------------------------------------|
G|-------------------------------------18-16---------------------------------|
D|-------------------------------------------18-16---------------------------|
A|-------------------------------------------------18-16\14----16~-----------|
E|----------------------------------------------------------16---------------|

Chorus and Outro

The chorus is the same, but there is an outro solo which is very similar to the intro solo.

Outro Solo
e|---------------------------------------------------------------------------|
B|---19~------17-16--17-16---------------------------------------------------|
G|-16----------------------16~-----------------------------------------------|
D|---------------------------------13-14/16-\14--13--------------------------|
A|---------------------------------------------------16--14\9----11~---------|
E|---------------------------------------------------------------------------|

e|---------------------------------------------------------------------------|
B|---------------------------------------------------------------------------|
G|----18b20--16~---14-13-----------------------------------------------------|
D|-16-------------------16-14---------13-14/16-\14--13-----------------------|
A|-------------------------------14---------------------16--14\9----11~------|
E|---------------------------------------------------------------------------|


************************************

| /   slide up
| \   slide down
| h   hammer-on
| p   pull-off
| ~   vibrato
| +   harmonic
| x   Mute note
| b   Bend
| pb  Pre-bend
| br  Bend release
| pbr Pre-bend release
| brb Bend release bend

************************************
comments
We did not receive enough feedback on this tab! Please rate:
print report bad tab
1 2 3 4 5
1 comment total.
0 reply
iloveamanda12 694 wrote on November 23 2014, 07:32 pm

Just for your information, Satchel plays the intro on two strings, just as your alternate depicts. He uses an 11th fret on the G instead of a 7th on B, though. Good tab!

I want to post or [tab]
guest
You may want to rate the tab now too:
select rating
Please do not post tabs as comments. Select "correction" instead!