Oops, an error
Loading. Please wait.

Let Me Cum In Tab

version 1
version 1

Whole song

Interactive

8,383 views 30 this week
no commentswrite comment
1 2 3 4 5
excellent!
x 11
add to favorites
launch autoscroll
font size
0
reset
how to read this tab
guitar tuner
Tab Pro tools
  • play this tab
  • loop segment
  • change instrument
  • show fretboard
  • metronome
×
Best way to learn
"Let Me Cum In"
Autoscroll
slow
fast
+/-
esc
set tempo
stop
Contributor
Tuning
D# G# C# F# A# D#
Let Me Cum In    By:Steel Panther

My email: metalsamppa@hotmail.com
Please email me if you have something to correct on this tab!


Intro:  0:00                                                       (4x)
E---------------------------------------------------------------------|
B---------------------------------------------------------------------|
G------3p0---0--0-------------------3p0---0--0-----5------------------|
D--5-5-----3------3p0-3p0-------5-5-----3------3p0-5------------------|
A--5-3--------------------1^----5-5-----------------------------------|
E--3-3--------------------------3-3-----------------------------------|


Verse:  0:15                                                       (2x)
E---------------------------------------------------------------------|
B----------------6-6---------------------------6-6--6--6--------------|
G---------3-3----5-5----5---------------3-3----5-5--5--5--5-----------|
D--5-5----3-3----3-3----5--------5-5----3-3----3-3--3--3--5-----------|
A--5-5----1-1-----------3--------5-5----1-1---------------3-----------|
E--3-3--------------------0-1-2--3-5----------------------------------|


E---------------------------------------------------------------------|
B----------------6-6--------------------------------------------------|
G---------3-3----5-5----5--------7-7-7-7-7-7-7-7-8-8-8-8-----10-10----|
D--5-5----3-3----3-3----5--------7-7-7-7-7-7-7-7-8-8-8-8-8-8-10-10----|
A--5-5----1-1-----------3--------5-5-5-5-5-5-5-5-6-6-6-6-8-8-8--8-----|
E--3-3--------------------0-1-2--------------------------6-6----------|


First Chorus:  0:49
E-----------------------------------------------------------------|
B----------------6-6--6------------------------6-6--6--6----------|
G---------5-5--5-5-5--5--5--1-----------5-5--5-5-5--5--5--5-------|
D--5-5--5-5-5--5-3-3--3--5--1----5-5--5-5-5--5-3-3--3--3--5-------|
A--5-5--5-3-3--3---------3--3----5-5--5-3-3--3------------3-------|
E--3-3--3------------------------3-3--3---------------------------|


E-----------------------------------------------------------------|
B----------------6-6--6-------------------------------------------|
G---------5-5--5-5-5--5--5--1---1-1-1-1-1-1-1-1-8-8-8-8-5-5-5-5---|
D--5-5--5-5-5--5-3-3--3--5--1---1-1-1-1-1-1-1-1-8-8-8-8-5-5-5-5---|
A--5-5--5-3-3--3---------3--3---3-3-3-3-3-3-3-3-6-6-6-6-3-3-3-5---|
E--3-3--3---------------------------------------------------------|


Intro (2x) 1:08

Verse (1x) 1:16


Second Chorus 1:33
E-----------------------------------------------------------------|
B----------------6-6--6------------------------6-6--6--6----------|
G---------5-5--5-5-5--5--5--1-----------5-5--5-5-5--5--5--5-------|
D--5-5--5-5-5--5-3-3--3--5--1----5-5--5-5-5--5-3-3--3--3--5-------|
A--5-5--5-3-3--3---------3--3----5-5--5-3-3--3------------3-------|
E--3-3--3------------------------3-3--3---------------------------|


E---------------------------------------------------------------------|
B----------------6-6--6-----------------------------------------------|
G---------5-5--5-5-5--5--5--1---7-7-7-7-7-7-7-7---------10-10-10-10---|
D--5-5--5-5-5--5-3-3--3--5--1---7-7-7-7-7-7-7-7-8-8-8-8-10-10-10-10---|
A--5-5--5-3-3--3---------3--3---5-5-5-5-5-5-5-5-8-8-8-8-8--8--8--8----|
E--3-3--3---------------------------------------6-6-6-6---------------|


E----------------------------------------|
B----------------------------------------|
G--7-7-7-7-7-7-7-7-8-8-8-8---------------|
D--7-7-7-7-7-7-7-7-8-8-8-8-10-10-10-10---|
A--5-5-5-5-5-5-5-7-6-6-6-6-10-10-10-10---|
E--------------------------8--8--8--8----|


Solo: 1:53   I dont know how the solo is played, but heres the 2nd guitar.
E--------------------------------------------------------------------------------|
B-----------------------------------------------------------------------6---4/6--|
G---------------------7---5/7--------------------7---5-5--5--5--5--5--5-5-5-3/5--|
D--7-7--7--7--7--7--7-7-7-5/7-7-7--7--7--7--7--7-7-7-5-5--5--5--5--5--5-3-5-1/3--|
A--7-7--7--7--7--7--7-5-7-3/5-7-7--7--7--7--7--7-5-7-3-3--3--3--3--3--3---3------|
E--5-5--5--5--5--5--5---5-----5-5--5--5--5--5--5---5-----------------------------|


E--------------------------------------------------|
B---------------------4-4-4-4--4-4-4-4--4-4-4-4----|
G--5-5--5--5--5--5--5-3-3-3-3--3-3-3-3--3-3-3-3----|
D--5-5--5--5--5--5--5-1-1-1-1--1-1-1-1--1-1-1-1-5--|
A--3-3--3--3--3--3--3---------------------------5--|
E-----------------------------------------------3--|

Then comes the part after the solo at 2:09
There is some chords
     G    F    C
E----3----1----0----|
B----3----1----1----|
G----0----2----0----|
D----0----3----2----|
A----2----3----3----|
E----3----1---------|


And This little fill 2:02

E----------------------------|
B-----15----13h15-11b--------|
G--12-----------------12-12--|
D----------------------------|
A----------------------------|
E----------------------------|


At 2:30 comes this
                         (8x)          (4x)
E--------------------------:|  |----------|
B--------------------------:|  |----------|
G--------------------------:|  |----------|
D--------------------------:|  |--5-5-5-5-|
A--------------------------:|  |--5-5-5-5-|
E--3--3--3--3-3--3-3--3--3-:|  |--3-3-3-3-|..


Third chorus 2:50                                           (2x)
E-----------------------------------------------------------------|
B----------------6-6--6------------------------6-6--6--6----------|
G---------5-5--5-5-5--5--5--1-----------5-5--5-5-5--5--5--5-------|
D--5-5--5-5-5--5-3-3--3--5--1----5-5--5-5-5--5-3-3--3--3--5-------|
A--5-5--5-3-3--3---------3--3----5-5--5-3-3--3------------3-------|
E--3-3--3------------------------3-3--3---------------------------|




E---------------------------------------------------------------------------|
B---------------------------------------------------------------------------|
G--7-7-7-7-7-7-7-7---------10-10-10-10--7-7-7-7-7-7-7-7-8-8-8-8-------------|
D--7-7-7-7-7-7-7-7-8-8-8-8-10-10-10-10--7-7-7-7-7-7-7-7-8-8-8-8-10-10-10-10-|
A--5-5-5-5-5-5-5-5-8-8-8-8-8--8--8--8---5-5-5-5-5-5-5-5-6-6-6-6-10-10-10-10-|
E------------------6-6-6-6--------------------------------------8--8--8--8--|



Ending1   3:15
E---------------------------------------------------------------------|
B---------------------------------------------------------------------|
G------3p0---0--0-------------------3p0---0--0-----5------------------|
D--5-5-----3------3p0-3p0-------5-5-----3------3p0-5------------------|
A--5-3--------------------1^----5-5-----------------------------------|
E--3-3--------------------------3-3-----------------------------------|

Ending2   3:21            (4x)         Ends to this
E-----------------------------|    E------|
B-----------------------------|    B------|
G------3p0---0--0-------------|    G------|
D--5-5-----3------3p0-3p0-----|    D--5-5-|
A--5-5--------------------1^--|    A--5-5-|
E--3-3------------------------|    E--3-3-|
comments
print report bad tab
I want to post or [tab]
guest
You may want to rate the tab now too:
select rating
Please do not post tabs as comments. Select "correction" instead!