Oops, an error
Loading. Please wait.

Party All Day Tab

version 1
version 1

Whole song

Interactive

13,797 views 21 this week
no commentswrite comment
1 2 3 4 5
accurate
x 3
add to favorites
launch autoscroll
font size
0
reset
how to read this tab
guitar tuner
Tab Pro tools
  • play this tab
  • loop segment
  • change instrument
  • show fretboard
  • metronome
×
Best way to learn
"Party All Day"
Autoscroll
slow
fast
+/-
esc
set tempo
stop
Contributor
Difficulty
novice
Party All Day, by Steel Panther

off the 'Feel The Steel' album

http://www.steelpantherrocks.com

Transcribed by Beanboy


intro -
E-------------------------------------------------------|
B-------------------------------------------------------|
G-------------------------------------------------------|
D-------------------------------------------------------|
A--5-0-3-5-0-3-5-5---repeat-----------------------------|
E-------------------------------------------------------|


verse -
E--5--5---------------------------------5--5--------------------------|
B--5--6------------------------.--------5--6--------------------------|
G--7--7--5--10-------.-.--5--7-7-5s7----7--7--5--10------.-.--5-------|
D--7--7--5--10--8-10-8-8--5--7-7-5s7----7--7--5--10-8-10-8-8--5--3----|
A--5--5--3--8---8-8--8-8--3--5-5-3s5----5--5--3--8--8-8--8-8--3--3----|
E---------------6-6--6-6----------------------------6-6--6-6-----1----|


pre-chorus -
E--------------------------------------------------------------------|
B--------------------------------------------------------------------|
G--------------------------------------------------------------------|
D-8-10-8-8-10-8-888--10-12-10-10-12-10-101010------------------------|
A-8-8--8-8-8--8-888--10-10-10-10-10-10-101010------------------------|
E-6-6--6-6-6--6-666--8--8--8--8--8--8--8-8-8-------------------------|


chorus -
E--------------------------------------------------------------------|
B--------.-.----------------------.-.--------------------------------|
G--7--3--5-5--------3--5-----7--3--5-5--------5----------------------|
D--7--3--5-5--3--3--3--5-----7--3--5-5--3--3--5--then intro----------|
A--5--1--3-3--3--3--1--3-----5--1--3-3--3--3--3----------------------|
E-------------1--1----------------------1--1-------------------------|

verse

pre chorus

chorus

Solo (Tabbed by P.West - good job!) -

Play chorus underneath

e------------------------------------|-------12-13---------------------------|
b------------------------------------|----15------13-------------------------|
g----------17b19-17~-15-15s14-14-14~-|-14-----------14-15-14--17~------------|
d-12-14-15---------------------------|----------------------15---------------|
a------------------------------------|---------------------------------------|
E------------------------------------|---------------------------------------|

e------------------------------------|-------12-13---------------------------|
b------------------------------------|----15------13-------------------------|
g---------17b19-17~-15-15s14-14-14~--|-14-----------14-15-14--12b14r12p10----|
d-12-14-15---------------------------|----------------------15------------12-|
a------------------------------------|---------------------------------------|
E------------------------------------|---------------------------------------|


Pre-Chorus

Chorus up by one semitone

ending -
E--------------------------------------------------------------------|
B--------------------------------------------------------------------|
G--8-8-6-8--6-8------------------------------------------------------|
D--8-8-6-8--6-8------------------------------------------------------|
A--6-6-4-6--4-6------------------------------------------------------|
E--------------------------------------------------------------------|



(It's not perfect by any means, but no-one else has posted one yet
 - feel free to use this to improve the tab!)
comments
We did not receive enough feedback on this tab! Please rate:
print report bad tab
1 2 3 4 5
I want to post or [tab]
guest
You may want to rate the tab now too:
select rating
Please do not post tabs as comments. Select "correction" instead!