Oops, an error
Loading. Please wait.

Party Like Its The End Of The World bass

3,324 views 12 this week
1 commentread comment
1 2 3 4 5
x 5
add to favorites
×
Save as Personal and add changes to this tab that will be seen only by you. Learn more ›
×
You can save this tab as Personal to edit and correct it or add notes. All changes will be seen only by you. Learn more »
launch autoscroll
font size
0
reset
guitar tuner
edit
Autoscroll
slow
fast
+/-
esc
set tempo
stop
0:03 Verse x2
Gb|------------------------------------------------------------------|
Db|o---------------------------------------------------------5-------|
Ab|o-----------------0-1-2-----------2---------2-4-0---0---0---4-6-7-|
Eb|--0---------------------0---0---0---------------------------------|
     1 + 2 + 3 + 4 + 1 + 2 + 3 + 4 + 1 + 2 + 3 + 4 + 1 + 2 + 3 + 4 +

Gb|------------------------------------------------------------------|
Db|-----------------------------------------------------------------o|
Ab|-----------------0-1-2-----------2---------2-4-------------------o|
Eb|-0---------------------0---0---0---------------5---5-4-5-4-5-4-2--|
    1 + 2 + 3 + 4 + 1 + 2 + 3 + 4 + 1 + 2 + 3 + 4 + 1 + 2 + 3 + 4 +

0:32 Pre-Chorus
Gb|-----------------------------------------------------------------|
Db|-4---4---4---4---4---4---4---4---2---2---2---2---2---2---2---2---|
Ab|---2---2---2---2---2---2---2---2---0---0---0---0---0---0---0---0-|
Eb|-----------------------------------------------------------------|
    1 + 2 + 3 + 4 + 1 + 2 + 3 + 4 + 1 + 2 + 3 + 4 + 1 + 2 + 3 + 4 +

Gb|-----------------------------------------------------------------|
Db|-----------------------------------------------------------------|
Ab|-3-0-3-0-3-0-3-0-3-0-3-0-3-0-3-0-4-0-4-0-4-0-4-0-4-0-4-0-4-0-4-0-|
Eb|-----------------------------------------------------------------|
    1 + 2 + 3 + 4 + 1 + 2 + 3 + 4 + 1 + 2 + 3 + 4 + 1 + 2 + 3 + 4 +

0:46 Chorus
Gb|-----------------------------------------------------------------|
Db|-----------------------------------------------------------------|
Ab|---------0-------2---2-----------2-2-2-2-2-0-0-0-0-1-2-----------| 
Eb|-0-----------------------0-----------------------------0---------|
    1 + 2 + 3 + 4 + 1 + 2 + 3 + 4 + 1 + 2 + 3 + 4 + 1 + 2 + 3 + 4 +

Gb|-----------------------------------------------------------------|
Db|-----------------------------------2-----------------------------|
Ab|---------0-------2---2-----------4---4-2-4-2-5-0-----------------|
Eb|-0-----------------------0---------------------------------------|
    1 + 2 + 3 + 4 + 1 + 2 + 3 + 4 + 1 + 2 + 3 + 4 + 1 + 2 + 3 + 4 +

Gb|---------------------------------|
Db|---------------------------------|
Ab|-----------------7-7-4-0---------|
Eb|-0-------0-----------------------|
    1 + 2 + 3 + 4 + 1 + 2 + 3 + 4 +

1:04 Verse
Gb|------------------------------------------------------------------|
Db|o---------------------------------------------------------5-------|
Ab|o-----------------0-1-2-----------2---------2-4-0---0---0---4-6-7-|
Eb|--0---------------------0---0---0---------------------------------|
     1 + 2 + 3 + 4 + 1 + 2 + 3 + 4 + 1 + 2 + 3 + 4 + 1 + 2 + 3 + 4 +

Gb|------------------------------------------------------------------|
Db|-----------------------------------------------------------------o|
Ab|-----------------0-1-2-----------2---------2-4-------------------o|
Eb|-0---------------------0---0---0---------------5---5-4-5-4-5-4-2--|
    1 + 2 + 3 + 4 + 1 + 2 + 3 + 4 + 1 + 2 + 3 + 4 + 1 + 2 + 3 + 4 +

1:32 Pre-Chorus
Gb|-----------------------------------------------------------------|
Db|-4---4---4---4---4---4---4---4---2---2---2---2---2---2---2---2---|
Ab|---2---2---2---2---2---2---2---2---0---0---0---0---0---0---0---0-|
Eb|-----------------------------------------------------------------|
    1 + 2 + 3 + 4 + 1 + 2 + 3 + 4 + 1 + 2 + 3 + 4 + 1 + 2 + 3 + 4 +

Gb|-----------------------------------------------------------------|
Db|-----------------------------------------------------------------|
Ab|-3-0-3-0-3-0-3-0-3-0-3-0-3-0-3-0-4-0-4-0-4-0-4-0-4-0-4-0-4-0-4-0-|
Eb|-----------------------------------------------------------------|
    1 + 2 + 3 + 4 + 1 + 2 + 3 + 4 + 1 + 2 + 3 + 4 + 1 + 2 + 3 + 4 +

1:47 Chorus
Gb|-----------------------------------------------------------------|
Db|-----------------------------------------------------------------|
Ab|---------0-------2---2-----------2-2-2-2-2-0-0-0-0-1-2-----------| 
Eb|-0-----------------------0-----------------------------0---------|
    1 + 2 + 3 + 4 + 1 + 2 + 3 + 4 + 1 + 2 + 3 + 4 + 1 + 2 + 3 + 4 +

Gb|-----------------------------------------------------------------|
Db|-----------------------------------------------------------------|
Ab|---------0-------2---2-----------4-4-4-4-4-4-4-4-4-4-4-4-4-4-4-4-|
Eb|-0-----------------------0---------------------------------------|
    1 + 2 + 3 + 4 + 1 + 2 + 3 + 4 + 1 + 2 + 3 + 4 + 1 + 2 + 3 + 4 +

Gb|---------------------------------|
Db|---------------------------------|
Ab|-4-4-4-4-4-4-4---5-5-5-5-5-5-5-5-|
Eb|---------------------------------|
    1 + 2 + 3 + 4 + 1 + 2 + 3 + 4 +

2:05 Solo
Gb|-------------------------------------------------------------------|
Db|o-----------------------------------------------------------------o|
Ab|o---------------------0-----------2-2-2-2-2-2-2-0---4-3-2-0-2-4-4-o|
Eb|--2-------2-------0-2---2---2-2-2----------------------------------|x4
     1 + 2 + 3 + 4 + 1 + 2 + 3 + 4 + 1 + 2 + 3 + 4 + 1 + 2 + 3 + 4 + 

2:33 Bridge
Gb|-----------------------------------------------------------------|
Db|-----------------------------------------------------------------|
Ab|-2-2-2-2-2-2-2-2-----------------2-2-2-2-2-2-2-2-----------------|
Eb|-----------------3-3-3-3-3-3-3-3-----------------3-3-3-3-3-3-3-3-|
    1 + 2 + 3 + 4 + 1 + 2 + 3 + 4 + 1 + 2 + 3 + 4 + 1 + 2 + 3 + 4 + 

Gb|-----------------------------------------------------------------|
Db|-----------------------------------------------------------------|
Ab|-2-2-2-2-2-2-2-2-----------------3-3-3-3-3-3-3-3-5-5-5-5-5-5-5-5-|
Eb|-----------------3-3-3-3-3-3-3-3---------------------------------|
    1 + 2 + 3 + 4 + 1 + 2 + 3 + 4 + 1 + 2 + 3 + 4 + 1 + 2 + 3 + 4 + 

Gb|-----------------------------------------------------------------|
Db|-----------------------------------------------------------------|
Ab|-----------------------------------------------------------------|
Eb|-0-0-0-0-0-0-0-0-0-0-0-0-0---------------------------------------|
    1 + 2 + 3 + 4 + 1 + 2 + 3 + 4 + 1 + 2 + 3 + 4 + 1 + 2 + 3 + 4 + 

3:05
Gb|---|
Db|---|
Ab|---|
Eb|-0-|

3:23 Chorus
Gb|-----------------------------------------------------------------|
Db|-----------------------------------------------------------------|
Ab|-----------------0---0-----------2-2-2-2-2-0-0-0-0-1-2-----------| 
Eb|-0-----------------------0-----------------------------0---------|
    1 + 2 + 3 + 4 + 1 + 2 + 3 + 4 + 1 + 2 + 3 + 4 + 1 + 2 + 3 + 4 +

Gb|-----------------------------------------------------------------|
Db|-----------------------------------------------------------------|
Ab|---------0-------2---2-----------2-2-2-2-2-0-0-0-0-1-2-----------| 
Eb|-0-----------------------0-----------------------------0---------|
    1 + 2 + 3 + 4 + 1 + 2 + 3 + 4 + 1 + 2 + 3 + 4 + 1 + 2 + 3 + 4 +

3:37 Chorus
Gb|-----------------------------------------------------------------|
Db|-----------------------------------------------------------------|
Ab|---------0-------2---2-----------2-2-2-2-2-0-0-0-0-1-2-----------| 
Eb|-0-----------------------0-----------------------------0---------|
    1 + 2 + 3 + 4 + 1 + 2 + 3 + 4 + 1 + 2 + 3 + 4 + 1 + 2 + 3 + 4 +

Gb|-----------------------------------------------------------------|
Db|-----------------------------------------------------------------|
Ab|---------0-------2---2-----------4-4-4-4---------2-2-2-2---------|
Eb|-0-----------------------0---------------2-2-2-2---------0-0-0-0-|
    1 + 2 + 3 + 4 + 1 + 2 + 3 + 4 + 1 + 2 + 3 + 4 + 1 + 2 + 3 + 4 +

3:51 Outro
Gb|-----------------------------------------------------------------|
Db|---2-------------------------------------------------------------|
Ab|-4---4-2-4-2-5-0---------------------------------0---0-----------|
Eb|---------------------------------0-------0---------------0-0-----|
    1 + 2 + 3 + 4 + 1 + 2 + 3 + 4 + 1 + 2 + 3 + 4 + 1 + 2 + 3 + 4 + 

Tabbed By Jack Mills

            
            
Suggest correction
Creating personal tab
Creating personal tab
You can edit any tab online and save it as your Personal.

You can edit, replace or remove any tab part or add personal notes – all changes will be seen only by you.

Personal tabs can be accessed anytime from any device, even offline.
Learn more »
comments
print report bad tab
1 comment total.
0 reply
sonic_tom 10 Jan 22, 2017 02:05 PM

Hey great tab man! Been looking for this tab as I love the song!

guest
You may want to rate the tab now too:
select rating
Wanna post a correction for this tab? Suggest correction