Oops, an error
Loading. Please wait.

Shes Tight Tab

427 views 6 this week
no commentswrite comment
1 2 3 4 5
1 last vote to show rating
add to favorites
launch autoscroll
font size
0
reset
how to read this tab
guitar tuner
Autoscroll
slow
fast
+/-
esc
set tempo
stop
Help us to improve Ultimate-Guitar.com Take our survey!
×
Author
Title: She's Tight
Artist: Steel Panther
Tempo = 150
Electric Guitar 

[Intro]
e|----------------------------|----------------------------|
B|----------------------------|----------------------------|
G|----------------------------|----------------------------|
D|--8s-9--9--9--8s-9--9--9----|--8s-9--9--9----------------|
A|--6s-7--7--7--6s-7--7--7----|--6s-7--7--7----------------|
E|----------------------------|----------------------------|


e|----------------------------|----------------------------|
B|----------------------------|----------------------------|
G|----------------------------|----------------------------|
D|--8s-9--9--9--8s-9--9--9----|--8s-9--9--9L-9--9--9--9----|
A|--6s-7--7--7--6s-7--7--7----|--6s-7--7--7L-7--7--7--7----|
E|----------------------------|----------------------------|


e|----------------------------|----------------------------|
B|----------------------------|----------------------------|
G|----------------------------|----------------------------|
D|--8s-9--9--9--8s-9--9--9----|--8s-9--9--9----------------|
A|--6s-7--7--7--6s-7--7--7----|--6s-7--7--7----------------|
E|----------------------------|----------------------------|


e|----------------------------|----------------------------|
B|----------------------------|----------------------------|
G|----------------------------|-----------------------2L---|
D|--8s-9--9--9--8s-9--9--9----|--8s-9--9--9L-9--2--2--2L---|
A|--6s-7--7--7--6s-7--7--7----|--6s-7--7--7L-7--2--2--0L---|
E|----------------------------|-----------------0--0-------|

[Verse]
e|-------|----------------------------|-------|----------------------------|
B|-------|----------------------------|-------|----------------------------|
G|--2L---|--2L----------2--------2L---|--2L---|--2L----------2--------4L---|
D|--2L---|--2L----------2--2--2--2L---|--2L---|--2L----------2--2--2--4L---|
A|--0L---|--0L----------0--2--2--0L---|--0L---|--0L----------0--2--2--2L---|
E|-------|-----------------0--0-------|-------|-----------------0--0-------|


e|-------|----------------------------|-------|----------------------------|
B|-------|----------------------------|-------|----------------------------|
G|--4L---|--4L----------4--------4L---|--4L---|--4L----------4--------2L---|
D|--4L---|--4L----------4--2--2--4L---|--4L---|--4L----------4--2--2--2L---|
A|--2L---|--2L----------2--2--2--2L---|--2L---|--2L----------2--2--2--0L---|
E|-------|-----------------0--0-------|-------|-----------------0--0-------|


e|-------|----------------------------|-------|----------------------------|
B|-------|----------------------------|-------|----------------------------|
G|--2L---|--2L----------2--------2L---|--2L---|--2L----------2--------4L---|
D|--2L---|--2L----------2--2--2--2L---|--2L---|--2L----------2--2--2--4L---|
A|--0L---|--0L----------0--2--2--0L---|--0L---|--0L----------0--2--2--2L---|
E|-------|-----------------0--0-------|-------|-----------------0--0-------|


e|-------|----------------------------|-------|-------|
B|-------|----------------------------|-------|-------|
G|--4L---|--4L----------4-------------|-------|-------|
D|--4L---|--4L----------4--2--2--6L---|--6L---|--6----|
A|--2L---|--2L----------2--2--2--4L---|--4L---|--4----|
E|-------|-----------------0--0--4----|--4L---|--4----|

[Break]
e|----------------------------|----------------------------------------------------|
B|----------------------------|----------------------------------------------------|
G|--7--7--7--7--6--4----------|----------------------------------------------------|
D|--7--7--7--7--6--4-----7L---|--7-----7-----7L-7--7-----7L-7--7-----7L-7--7-------|
A|--5--5--5--5--4--2-----7L---|--7-----7-----7L-7--7-----7L-7--7-----7L-7--7-------|
E|-----------------------5L---|--5-----5-----4h-5--5-----4h-5--5-----4h-5--5-------|      x 4 

[Chorus]
e|----------------|----------------------------|----------------|----------------------------|
B|----------------|----------------------------|----------------|----------------------------|
G|----------------|--3s-4--4--4--3s-4--4--4----|----------------|----------------------------|
D|-----2----------|--3s-4--4--4--3s-4--4--4----|-----6----------|--6s-7--7--7--6s-7--7--7----|
A|-----2----------|--1s-2--2--2--1s-2--2--2----|-----6----------|--6s-7--7--7--6s-7--7--7----|
E|-----0----------|----------------------------|-----4----------|--4s-5--5--5--4s-5--5--5----|  x 2

[Main riff]
e|----------------------------|----------------------------|
B|----------------------------|----------------------------|
G|----------------------------|----------------------------|
D|--8s-9--9--9--8s-9--9--9----|--8s-9--9--9----------------|
A|--6s-7--7--7--6s-7--7--7----|--6s-7--7--7----------------|
E|----------------------------|----------------------------|


e|----------------------------|----------------------------|
B|----------------------------|----------------------------|
G|----------------------------|----------------------------|
D|--8s-9--9--9--8s-9--9--9----|--8s-9--9--9L-9--9--9--9----|
A|--6s-7--7--7--6s-7--7--7----|--6s-7--7--7L-7--7--7--7----|
E|----------------------------|----------------------------|


e|----------------------------|----------------------------|
B|----------------------------|----------------------------|
G|----------------------------|----------------------------|
D|--8s-9--9--9--8s-9--9--9----|--8s-9--9--9----------------|
A|--6s-7--7--7--6s-7--7--7----|--6s-7--7--7----------------|
E|----------------------------|----------------------------|


e|----------------------------|----------------------------|
B|----------------------------|----------------------------|
G|----------------------------|-----------------------2L---|
D|--8s-9--9--9--8s-9--9--9----|--8s-9--9--9L-9--2--2--2L---|
A|--6s-7--7--7--6s-7--7--7----|--6s-7--7--7L-7--2--2--0L---|
E|----------------------------|-----------------0--0-------|

[Verse]
e|-------|----------------------------|-------|----------------------------|
B|-------|----------------------------|-------|----------------------------|
G|--2L---|--2L----------2--------2L---|--2L---|--2L----------2--------4L---|
D|--2L---|--2L----------2--2--2--2L---|--2L---|--2L----------2--2--2--4L---|
A|--0L---|--0L----------0--2--2--0L---|--0L---|--0L----------0--2--2--2L---|
E|-------|-----------------0--0-------|-------|-----------------0--0-------|


e|-------|----------------------------|-------|----------------------------|
B|-------|----------------------------|-------|----------------------------|
G|--4L---|--4L----------4--------4L---|--4L---|--4L----------4--------2L---|
D|--4L---|--4L----------4--2--2--4L---|--4L---|--4L----------4--2--2--2L---|
A|--2L---|--2L----------2--2--2--2L---|--2L---|--2L----------2--2--2--0L---|
E|-------|-----------------0--0-------|-------|-----------------0--0-------|


e|-------|----------------------------|-------|----------------------------|
B|-------|----------------------------|-------|----------------------------|
G|--2L---|--2L----------2--------2L---|--2L---|--2L----------2--------4L---|
D|--2L---|--2L----------2--2--2--2L---|--2L---|--2L----------2--2--2--4L---|
A|--0L---|--0L----------0--2--2--0L---|--0L---|--0L----------0--2--2--2L---|
E|-------|-----------------0--0-------|-------|-----------------0--0-------|


e|-------|----------------------------|-------|-------|
B|-------|----------------------------|-------|-------|
G|--4L---|--4L----------4-------------|-------|-------|
D|--4L---|--4L----------4--6--6--6L---|--6L---|--6----|
A|--2L---|--2L----------2--6--6--4L---|--4L---|--4----|
E|-------|-----------------4--4--4----|--4L---|--4----|

[Break]
e|----------------------------|----------------------------------------------------|
B|----------------------------|----------------------------------------------------|
G|--7--7--7--7--6--4----------|----------------------------------------------------|
D|--7--7--7--7--6--4-----7L---|--7-----7-----7L-7--7-----7L-7--7-----7L-7--7-------|
A|--5--5--5--5--4--2-----7L---|--7-----7-----7L-7--7-----7L-7--7-----7L-7--7-------|
E|-----------------------5L---|--5-----5-----4h-5--5-----4h-5--5-----4h-5--5-------|      x 4 

[Chorus]
e|----------------|----------------------------|----------------|----------------------------|
B|----------------|----------------------------|----------------|----------------------------|
G|----------------|--3s-4--4--4--3s-4--4--4----|----------------|----------------------------|
D|-----2----------|--3s-4--4--4--3s-4--4--4----|-----6----------|--6s-7--7--7--6s-7--7--7----|
A|-----2----------|--1s-2--2--2--1s-2--2--2----|-----6----------|--6s-7--7--7--6s-7--7--7----|
E|-----0----------|----------------------------|-----4----------|--4s-5--5--5--4s-5--5--5----|  x 2

[Main riff]
e|----------------------------|----------------------------|
B|----------------------------|----------------------------|
G|----------------------------|----------------------------|
D|--8s-9--9--9--8s-9--9--9----|--8s-9--9--9----------------|
A|--6s-7--7--7--6s-7--7--7----|--6s-7--7--7----------------|
E|----------------------------|----------------------------|


e|----------------------------|----------------------------|
B|----------------------------|----------------------------|
G|----------------------------|----------------------------|
D|--8s-9--9--9--8s-9--9--9----|--8s-9--9--9L-9--9--9--9----|
A|--6s-7--7--7--6s-7--7--7----|--6s-7--7--7L-7--7--7--7----|
E|----------------------------|----------------------------|


e|----------------------------|----------------------------|
B|----------------------------|----------------------------|
G|----------------------------|----------------------------|
D|--8s-9--9--9--8s-9--9--9----|--8s-9--9--9----------------|
A|--6s-7--7--7--6s-7--7--7----|--6s-7--7--7----------------|
E|----------------------------|----------------------------|


e|----------------------------|----------------------------|
B|----------------------------|----------------------------|
G|----------------------------|-----------------------2L---|
D|--8s-9--9--9--8s-9--9--9----|--8s-9--9--9L-9--2--2--2L---|
A|--6s-7--7--7--6s-7--7--7----|--6s-7--7--7L-7--2--2--0L---|
E|----------------------------|-----------------0--0-------|

[Final Chorus]
e|----------------|----------------------------|----------------|----------------------------|
B|----------------|----------------------------|----------------|----------------------------|
G|-----2----------|--3s-4--4--4--3s-4--4--4----|----------------|----------------------------|
D|-----2----------|--3s-4--4--4--3s-4--4--4----|-----2----------|--6s-7--7--7--6s-7--7--7----|
A|-----0----------|--1s-2--2--2--1s-2--2--2----|-----2----------|--6s-7--7--7--6s-7--7--7----|
E|----------------|----------------------------|-----0----------|--4s-5--5--5--4s-5--5--5----| x 4 

[Outro]
e|----------------------------|----------------------------|
B|----------------------------|----------------------------|
G|----------------------------|----------------------------|
D|--8s-9--9--9--8s-9--9--9----|--8s-9--9--9----------------|
A|--6s-7--7--7--6s-7--7--7----|--6s-7--7--7----------------|
E|----------------------------|----------------------------|


e|----------------------------|----------------------------|
B|----------------------------|----------------------------|
G|----------------------------|----------------------------|
D|--8s-9--9--9--8s-9--9--9----|--8s-9--9--9L-9--9--9--9----|
A|--6s-7--7--7--6s-7--7--7----|--6s-7--7--7L-7--7--7--7----|
E|----------------------------|----------------------------|


e|----------------------------|----------------------------|
B|----------------------------|----------------------------|
G|----------------------------|----------------------------|
D|--8s-9--9--9--8s-9--9--9----|--8s-9--9--9----------------|
A|--6s-7--7--7--6s-7--7--7----|--6s-7--7--7----------------|
E|----------------------------|----------------------------|


e|----------------------------|----------------------------||
B|----------------------------|----------------------------||
G|----------------------------|----------------------------||
D|--8s-9--9--9--8s-9--9--9----|--8s-9--9--9L---------------||
A|--6s-7--7--7--6s-7--7--7----|--6s-7--7--7L---------------||
E|----------------------------|----------------------------||

************************************

| s  Slap
| h  Hammer-on
| L  Tied note 
| s  Slide

************************************
Suggest correction
Give kudos to tab author, rate the tab!
1 2 3 4 5
comments
print report bad tab
guest
You may want to rate the tab now too:
select rating
Wanna post a correction for this tab? Suggest correction