Oops, an error
Loading. Please wait.

Turn Out The Lights Tab

version 1
version 1

Whole song

Interactive

21,396 views 6 this week
no commentswrite comment
1 2 3 4 5
x 9
add to favorites
launch autoscroll
font size
0
reset
how to read this tab
guitar tuner
Autoscroll
slow
fast
+/-
esc
set tempo
stop
Help us to improve Ultimate-Guitar.com Take our survey!
×
Author
Tuning
D# G# C# F# A# D#
TURN OUT THE LIGHTS
Steel Panther
Tabbed by T
any complaints, suggestions, death threats etc-wasssup@hotmail.co.uk
tuning: Eb (eb Bb Gb Db Ab Eb)
no timings included, just what he plays

INTRO

e-----------------------------------------------------------------|
B-----------------------------------------------------------------|
G-----------------------------------------------------------------|
D---------<7>-<5>---------<7>-<5>---------<7>-<5>---------<7>-<5>-|
A-----------------------------------------------------------------|
E-<9>-<9>---------<9>-<9>---------<9>-<9>---------<9>-<9>---------|

e---------------------------------------------------------|
B---------------------------------------------------------|
G---------------------------------<5>---------------------|
D---------<7>-<5>---------<7>-<5>-----<5>-<7>-----<7>-<5>-|
A---------------------------------------------<7>---------|
E-<9>-<9>---------<9>-<9>---------------------------------|

e-------1517191715--15------------------------------------------|
B-15b17~----------17--171517~1213151312--12----17~1512--12------|
G--------------------------------------14--1412-------14--12----|
D-----------------------------------------------------------14~-|
A---------------------------------------------------------------|
E---------------------------------------------------------------|

e-----------------------------15~-|
B-13-12--15-131217-151319-1715----|
G------14-------------------------|
D---------------------------------|
A---------------------------------|
E---------------------------------|

VERSE
as far as i know these are right, however, im pretty sure its not totally correct
its the right key though, at any rate.
e-0---0---0---0---0---0---0---0---0---0---0---0---0---0---0---0-|
B-0---0---0---0---0---0---0---0---0---0---0---2---0---0---0---0-|
G-4---3---2---3---4---3---2---3---4---3---2-------4---3---2---3-|
D-4---4---4---4---4---4---4---4---4---4---4---4---4---4---4---4-|
A---------------------------------------------------------------|
E---------------------------------------------------------------|

CHORUS

e------------------------------------------------------------------------|
B------------------------------------------------------------------------|
G------------------5-5--------------------5-5-777------------------5-5---|
D----------2-------5-5-5----------2-------5-5-777----------2-------5-5-5-|
A------------------3-3-5------------------3-3-555------------------3-3-5-|
E-0--0-3-5---5-3-0-----3-0--0-3-5---5-3-0---------0--0-3-5---5-3-0-----3-|

e--------------------|
B-13------15--15--17-|
G-----14-------------|
D--------------------|
A--------------------|
E--------------------|

VERSE

e-0---0---0---0---0---0---0---0---0---0---0---0---0---0---0---0-|
B-0---0---0---0---0---0---0---0---0---0---0---2---0---0---0---0-|
G-4---3---2---3---4---3---2---3---4---3---2-------4---3---2---3-|
D-4---4---4---4---4---4---4---4---4---4---4---4---4---4---4---4-|
A---------------------------------------------------------------|
E---------------------------------------------------------------|

CHORUS

e------------------------------------------------------------------------|
B------------------------------------------------------------------------|
G------------------5-5--------------------5-5-777------------------5-5---|
D----------2-------5-5-5----------2-------5-5-777----------2-------5-5-5-|
A------------------3-3-5------------------3-3-555------------------3-3-5-|
E-0--0-3-5---5-3-0-----3-0--0-3-5---5-3-0---------0--0-3-5---5-3-0-----3-|
                                                                         X2
e--------------------|
B-13------15--15--17-|
G-----14-------------|
D--------------------|
A--------------------|
E--------------------|

BRIDGE
lead
e-----------------------------------|
B-1716--161716--161716--161716------| X3
G-----16------16------16------16----|
D-------------------------------14~-|
A-----------------------------------|
E-----------------------------------|
rhythm
e----------------------------------|
B----------------------------------| X3
G-6-6-xxxx-------------------------|
D-6-6-xxxx6-6-xxxx7-777-777-777-77-|
A-4-4-xxxx6-6-xxxx7-777-777-777-77-|
E---------4-4-xxxx4/554/554/554/55-|

lead
e-----17------17------17------17---|
B-1617--171617--171617--171617--17-| X2
G----------------------------------|
D----------------------------------|
A----------------------------------|
E----------------------------------|
rhythm
e---------------|
B---------------|
G---------------|
D-9---7---9---7-|
A-9---7---9---7-|
E-7---5---7---5-|

SOLO
ive tried to make this easy as possible to read, basically,
everything takes place above the 10th fret, and most of its quite fast.
listen to it with the song
e-------------------------------|
B--------------------16---------|
G-16b18~16b18r16p1413--1113-----|
D--------------------------1411-|
A-------------------------------|
E-------------------------------|

e---------19p14h16p14--14----------14-16h17p16~-16-17p16p14---------------|
B-14h16h17-----------17--1716141617------------------------17-19-16b17r16-|
G-------------------------------------------------------------------------|
D-------------------------------------------------------------------------|
A-------------------------------------------------------------------------|
E-------------------------------------------------------------------------|

e------------------------------|
B-14-16p14p12~14---------------|
G---------------13p11---16b18~-|
D--------------------14--------|
A------------------------------|
E------------------------------|

e--------------17p12h16p12h15p12--------------------------|
B-15b17~---1517-----------------15p12171512--15p12-15b17~-|
G--------16--------------------------------14-------------|
D---------------------------------------------------------|
A---------------------------------------------------------|
E---------------------------------------------------------|
                                                                 Whammy dive
e-------12----------12----------12------1412------1512------17~20b22-|
B-15b17~--15p1215b17--15p1215b17--151212----151212----151212---------|
G--------------------------------------------------------------------|
D--------------------------------------------------------------------|
A--------------------------------------------------------------------|
E--------------------------------------------------------------------|

e-17h19p17--15--14--------------------------|
B---------17--15--15b17r15p1215b17r15121512-|
G-------------------------------------------|
D-------------------------------------------|
A-------------------------------------------|
E-------------------------------------------|

e----------------------------------------------------------|
B---1217----15----17----15----17----15----17----15---------|
G-15----1516--1816--1516--1816--1516--1816--1516--1816-----|
D-----------------------------------------------------1819-|
A----------------------------------------------------------|
E----------------------------------------------------------|
this bit isnt spot on, but its close
e--------------------------------------------------|
B--------------------------------------------------|
G-16p12h14h16p14p1214p11h1214p12p1112p11p9---------|
D-----------------------------------------119------|
A--------------------------------------------1197~-|
E--------------------------------------------------|

VERSE

e-0---0---0---0---0---0---0---0---0---0---0---0---0---0---0---0-|
B-0---0---0---0---0---0---0---0---0---0---0---2---0---0---0---0-|
G-4---3---2---3---4---3---2---3---4---3---2-------4---3---2---3-|
D-4---4---4---4---4---4---4---4---4---4---4---4---4---4---4---4-|
A---------------------------------------------------------------|
E---------------------------------------------------------------|

CHORUS


e------------------------------------------------------------------------|
B------------------------------------------------------------------------|
G------------------5-5--------------------5-5-777------------------5-5---|
D----------2-------5-5-5----------2-------5-5-777----------2-------5-5-5-|
A------------------3-3-5------------------3-3-555------------------3-3-5-|
E-0--0-3-5---5-3-0-----3-0--0-3-5---5-3-0---------0--0-3-5---5-3-0-----3-|
                                                                         X3
e--------------------|
B-13------15--15--17-|
G-----14-------------|
D--------------------|
A--------------------|
E--------------------|
lead
e-----17------17------17------17---|
B-1617--171617--171617--171617--17-| X until the end
G----------------------------------|
D----------------------------------|
A----------------------------------|
E----------------------------------|
rhythm
e---------------------------|
B---------------------------|
G---------------------------|
D-9---7---9---7---9---7---9-|
A-9---7---9---7---9---7---9-|
E-7---5---7---5---7---5---7-|

peace out \m/   \m/
Suggest correction
comments
print report bad tab
guest
You may want to rate the tab now too:
select rating
Wanna post a correction for this tab? Suggest correction