Oops, an error
Loading. Please wait.

Prodigal Son bass

331 views 3 this week
no commentswrite comment
1 2 3 4 5
3 more votes to show rating
add to favorites
×
Save as Personal and add changes to this tab that will be seen only by you. Learn more ›
×
You can save this tab as Personal to edit and correct it or add notes. All changes will be seen only by you. Learn more »
launch autoscroll
font size
0
reset
guitar tuner
edit
Autoscroll
slow
fast
+/-
esc
set tempo
stop
Author
Difficulty
[Intro]
G|-9--7---------|--------------|---------------|----------------|
D|------10--7~--|-------7------|---------------|----------------|
A|--------------|-7--9---------|-7---------7~--|-------3--2-----|
E|--------------|---------5~---|----5-5--8-----|-------------3~-|


G|-9--7---------|--------------|---------------|----------------|
D|------10--7~--|-------7------|---------------|----------------|
A|--------------|-7--9---------|-7---------7---|-------3--2-----|
E|--------------|---------5~---|----5-5--8--0~-|-------------3~-|

[Break 1 (0:16]
G|--------|--------|----9~--|--------|
D|--------|--------|--------|-12~----| X2
A|------(rest)-----|--------|--------|
E|--------|--------|--------|--------|

[Chorus (0:33)]
G|--------------|----------------|--------------|--------------|
D|------2-0-2---|-3-3------------|-(x)--2-0-2---|--------------|
A|-(0)--------3-|------3---------|------------3-|----------3-0-|
E|--------------|--------3---3-5-|--------------|-1-1-1--------|


G|--------------|----------------|--------------|--------------|
D|------2-0-2---|-3-3------------|-(x)--2-0-2---|--------------|
A|-(x)--------3-|------3---------|------------3-|--------------|
E|--------------|--------3---3-5-|--------------|-1-1-1--3~----|

[Verse (1:03)]
G|--------------|--------------|-------------|--------------|
D|------------2-|-3--3-2-------|-----------2-|-3--3-2-------|
A|-(0)--0-2-3---|--------5-5---|-(x)-0-2-3---|--------------|
E|--------------|--------------|-------------|--------3-3---|

G|--------------|--------------|-------------|--------------|
D|------------2-|-3--3-2-------|-----------2-|-3--3-2-0-----|
A|-(0)--0-2-3---|--------5-5---|-(x)-0-2-3---|--------------|
E|--------------|--------------|-------------|----------3---|

[Break 2 (1:41)]
G|-------|---------|--------|---------|
D|-------|---------|--------|---------|
A|-------|---------|--------|---------|
E|-5~----|-1---3---|--------|-5--3~---|

[Outro (4:22)]
G|-----------|-------------|--------------|--(7)------|
D|-----------|-------------|--------------|-----------|
A|-----------|-------------|-0-2-3--3-0---|-5---------|
E|-5~--------|-1~---3~-----|------------0-|-----------|

[Ending]
G|--------------------------------|
D|--------------------------------|
A|--------------------------------|
E|-5-5-5-5-5-5-5-5-5-5-(fade out)-| 

***********************************

x - Dead note
(n) - Ghost note

***********************************

Woy! Desperation has return
Sodom and Gomorrah no deh yah so!
Woy desperation has return over yonder
Sodom and Gomorrah no deh yah so!

Wild one, you are like the Prodigal Son yeah
And if you're the Prodigal Son, my friend
Then you're the one, you
Left taking your only possession
Your culture
To enter a world known for hacklings
In abundance, yeah
The hustlers of life
Have hooked and drained you from the man
Form the man that you used to be, turn your back on us
Return Rastaman where you came from
The land of your forefathers

Reaching the gates with your two long hands
Searching out for clean water
Wild one...

Prodigal come forth and rejoice with your voice
To the heavens
Chant some song, chant some song
Prodigal come forth and repent
Rastafari sins forgiven

Woy! Desperation has return...

One has returned without one's soul
And has squandered all his possessions
Let us cleanse your body now
From your service to the swine, because
You've been dead and now to anoint your head
With wisdom, knowledge and overstanding
A lesson has been taught unto you my friend
Time for a feast and rejoicing

Wild one...
Chorus
Woy!  Desperation has return
Prodigal has returned to his culture
Prodigal has returned give him water
Prodigal has returned, has returned...

            
            
Suggest correction
Creating personal tab
Creating personal tab
You can edit any tab online and save it as your Personal.

You can edit, replace or remove any tab part or add personal notes – all changes will be seen only by you.

Personal tabs can be accessed anytime from any device, even offline.
Learn more »
Give kudos to tab author, rate the tab!
1 2 3 4 5
comments
print report bad tab
guest
You may want to rate the tab now too:
select rating
Wanna post a correction for this tab? Suggest correction