Oops, an error
Loading. Please wait.

Steppin Out bass

7,883 views 15 this week
1 commentread comment
1 2 3 4 5
1 last vote to show rating
add to favorites
×
Save as Personal and add changes to this tab that will be seen only by you. Learn more ›
×
You can save this tab as Personal to edit and correct it or add notes. All changes will be seen only by you. Learn more »
launch autoscroll
font size
0
reset
guitar tuner
edit
Autoscroll
slow
fast
+/-
esc
set tempo
stop
Difficulty
intermediate
Steppin’ Out – Steel Pulse

For the beginning just hit the 1st fret on the E string with the bass notes
Then, theres a jam that goes like this:

G:----------------------------------------|
D:----------------------------------------|
A:------------3------1-1---1-3------------|
E:----1-1-3-4------------4---------1-1----|

And then the song goes back to the F note beats
Then the bridge jams on the F note, and also has a jam that goes like this:

G:------------------------------------------|
D:------------------------------------------|
A:------3--3-1------------------------------|
E:----1---------4-3--------1-1--------------|

Then the chorus goes like this:
(Could be played on octave higher)

G:-------------------------------------------------|
D:------7-6-4------4-------------------------------|
A:-------------------7-4-2------4------------------|
E:----2---------------------------5-4-2------2-2---|

Just repeat this for the rest of the chorus

Then the rest of the song is the switching off of these three bass lines, with F notes 
fret on E string) in between

REGGAE FEEL

            
            
Suggest correction
Creating personal tab
Creating personal tab
You can edit any tab online and save it as your Personal.

You can edit, replace or remove any tab part or add personal notes – all changes will be seen only by you.

Personal tabs can be accessed anytime from any device, even offline.
Learn more »
Give kudos to tab author, rate the tab!
1 2 3 4 5
comments
print report bad tab
1 comment total.
-1 reply
pavo_baxter 10 Oct 14, 2014 08:23 AM

Clearly wrong. from: https://www.youtube.com/watch?v=FphO_5BZuKk
Last part is wrong because there is a change in tonality that i cannot hear in the song :)

guest
Wanna post a correction for this tab? Suggest correction