Oops, an error
Loading. Please wait.

Abduction Tab

version 1
version 1

Whole song

511 views 1 this week
1 commentread comment
1 2 3 4 5
x 3
add to favorites
launch autoscroll
font size
0
reset
how to read this tab
guitar tuner
Autoscroll
slow
fast
+/-
esc
set tempo
stop
Help us to improve Ultimate-Guitar.com Take our survey!
×
Author
Difficulty
novice
Abduction - Steeler - Steeler 1983

e||---------------------14---12~|--------------------14---12-15-12-14~||-20-19-17--19~|
b||-------13---p12-12-----------|------13---p12-12--------------------||--------------|
g||0----------------------------|------------------------------------0||--------------|
d||0-14~------------------------|-14~--------------------------------0||--------------|
a||-----------------------------|-------------------------------------||--------------|
E||-----------------------------|-------------------------------------||--------------|
                                                                 repeat x4

Sorry I only have the first guitar, will have it soon!
Suggest correction
Give kudos to tab author, rate the tab!
1 2 3 4 5
comments
print report bad tab
1 comment total.
0 reply
acdc51502112 51 Mar 30, 2008 04:20 PM

woops mistake!!!

e||---------------------14---12~|--------------------14---12-15-12-14~||-20-19-17--19~|
b||------b12(13)p10-12----------|-----b12(13)p10-12-------------------||--------------|
g||0----------------------------|------------------------------------0||--------------|
d||0-14~------------------------|-14~--------------------------------0||--------------|
a||-----------------------------|-------------------------------------||--------------|
E||-----------------------------|-------------------------------------||--------------|
repeat x4

guest
You may want to rate the tab now too:
select rating
Wanna post a correction for this tab? Suggest correction