Oops, an error
Loading. Please wait.

Stuck In The Middle Tab

version 1
version 1

Whole song

Interactive

6,834 views 6 this week
no commentswrite comment
1 2 3 4 5
please rate
add to favorites
launch autoscroll
font size
0
reset
how to read this tab
guitar tuner
Tab Pro tools
  • play this tab
  • loop segment
  • change instrument
  • show fretboard
  • metronome
×
Best way to learn
"Stuck In The Middle"
Autoscroll
slow
fast
+/-
esc
set tempo
stop
Contributor
Tabbed by:shawnz


Tuning: dBGDAD
INTRO - played only twice
d|---0-0---0--0--0---0--0-0-0-0-----------| let open notes ring
B|---7-7---7--7--5---1--1-1-0-1-----------|
G|---7-7---7--7--5---2--2-2-2-2-----------|x2
D|---0-0---0--0--0---0--0-0-0-0-----------|
A|----------------------------------------|
D|----------------------------------------|


MAIN RIFF
d|--0--0v-0v-0v-0v-0-0v-------------------------------|strumming pattern is 
B|--7--7v-7v-7v-7v-7-7v-------------------------------|easy to figure out
G|--7--7v-7v-7v-7v-7-7v-------------------------------|
D|--0--------------0----------------------------------|x4 
A|----------------------------------------------------|
D|----------------------------------------------------|


d|----------------------------------------------------| 
B|--3-3--3v-3v-3v-3v-3-3------------------------------|
G|--0-0--0v-0v-0v-0v-0-0------------------------------|play twice then  
D|--0-0--0v-0v-0v-0v-0-0------------------------------|go back to main    
A|--5-5--------------5-5------------------------------|riff then play twice
D|----------------------------------------------------|more then play the chorus



d|-----------------------------------------| 
B|-2-2-2-2-2--1---1--3-3-3-3---------------|
G|-2-2-2-2-2--0---0--0-0-0-0---------------|
D|-2-2-2-2-2--2---2--0-0-0-0---------------|then repeat all again
A|-0-0-0-0-0--3---3--0-0-0-0---------------|
D|-------------------5-5-5-5---------------|

d|--0-0^----------| last two notes
B|--7-7^----------| 
G|--7-7^----------|
D|--0-0^----------|
A|----------------|
D|----------------|


^ = hard down stroke
v = up stroke
comments
We did not receive enough feedback on this tab! Please rate:
print report bad tab
1 2 3 4 5
I want to post or [tab]
guest
You may want to rate the tab now too:
select rating
Please do not post tabs as comments. Select "correction" instead!