Oops, an error
Loading. Please wait.

Cold Haily Windy Night bass

214 views 1 this week
2 commentsread comments
1 2 3 4 5
2 more votes to show rating
add to favorites
×
Save as Personal and add changes to this tab that will be seen only by you. Learn more ›
×
You can save this tab as Personal to edit and correct it or add notes. All changes will be seen only by you. Learn more »
launch autoscroll
font size
0
reset
guitar tuner
edit
Autoscroll
slow
fast
+/-
esc
set tempo
stop
Author
Difficulty
Tabbed by: 6METAL6BASSIST6
E-mail: petergriffinav@gmail.com

Tuning: EADG

G|------------------------------------------------7---------------7-------|
D|7-/-9---7---------------9-----/-9-------------------7---------------7---|
A|------------9---7---9---------------9---5---------------5---------------|
E|------------------------------------------------------------------------|

G|--------9---------------9-----------------------------------------------|
D|------------9---------------0---9-------9---7-------7-------7---9-------|
A|7---------------7-------------------------------9-------7h9-------------|
E|------------------------------------------------------------------------|

G|--------------------------------7---------------7---------------9-------|
D|----7---9-----/-9-------------------7---------------7---------------9---|
A|7h9-----------------9---5---------------5---------------7---------------|
E|------------------------------------------------------------------------|

G|----9-------------------------------------------------------------------|
D|--------9---------------9-----------7-------7---9-----------7---9-------|
A|7-----------7---7---------------7h9-----7h9-------------7h9-------------|
E|------------------------------------------------------------------------|

0:17

G|------------------------------------------------11--9---7---9---7-------|
D|----7---9-----------7---9-----------7---9---------------------------9---|
A|7h9-------------7h9-------------7h9-------------------------------------|
E|------------------------------------------------------------------------|

G|----7-------------------------------------------------------------------|
D|7h9-----9-----/-9h7-------------9-----------7---9-----------7---9-------|
A|--------------------9---9p7-------------7h9-------------7h9-------------|
E|----------------------------7-------------------------------------------|

G|--------------------------------7---------------9---------------------------------------|
D|----7---9-----/-9-----------------------------------------------9-----------7-------7---|
A|7h9-----------------9---5---------------7-----------5---7---------------7h9-----7h9-----|
E|----------------------------------------------------------------------------------------|

0:32

G|----------------------------------------7---------------7-------|
D|9-----------7---9-----/-9-------------------7---------------7---|
A|--------7h9-----------------9---5---------------5---------------|
E|----------------------------------------------------------------|

G|--------9---------------9---------------------------------------|
D|------------9---------------0---9-------9---7-------7-------7---|
A|7---------------7-------------------------------9-------7h9-----|
E|----------------------------------------------------------------|

G|----------------------------------------7---------------7-------|
D|9-----------7---9-----/-9-------------------7---------------7---|
A|--------7h9-----------------9---5---------------5---------------|
E|----------------------------------------------------------------|

G|--------9-----------9-----------9-------------------------------|
D|------------9-----------9---------------9-----------7-------7---|
A|7---------------7-----------7-------------------7h9-----7h9-----|
E|----------------------------------------------------------------|

0:47

G|----------------------------------------------------------------|
D|9-----------7---9-----------7---9-----------7---9-----------7---|
A|--------7h9-------------7h9-------------7h9-------------7h9-----|
E|----------------------------------------------------------------|

G|--------------------------------7---9---------------------------|
D|9-------7---------------7---9-----------7---9-----------7-------|
A|------------9---7---9---------------------------7---9-----------|
E|----------------------------------------------------------------|

G|----------------------------------------------------------------|
D|9-----------7---9-----------7---9-----------7---9-----/-9-------|
A|--------7h9-------------7h9-------------7h9-----------------9---|
E|----------------------------------------------------------------|

G|--------7---------------9---------------------------------------|
D|------------7---------------9-----------9-----------7-------7---|
A|5---------------5---------------7---------------7h9-----7h9-----|
E|----------------------------------------------------------------|

1:04

G|----------------------------------------7---------------7-------|
D|9-----------7---9-----/-9-------------------7---------------7---|
A|--------7h9-----------------9---5---------------5---------------|
E|----------------------------------------------------------------|

G|--------9---------------9---------------------------------------|
D|------------9---------------0---9-------9---7-------7-------7---|
A|7---------------7-------------------------------9-------7h9-----|
E|----------------------------------------------------------------|

G|----------------------------------------7---------------7-------|
D|9-----------7---9-----/-9-------------------7---------------7---|
A|--------7h9-----------------9---5---------------5---------------|
E|----------------------------------------------------------------|

G|--------9-----------9-----------9-------------------------------|
D|------------9-----------9---------------9-----------7-------7---|
A|7---------------7-----------7-------------------7h9-----7h9-----|
E|----------------------------------------------------------------|

1:19

G|----------------------------------------------------------------|
D|9-----------7---9-----------7---9-----------7---9-----------7---|
A|--------7h9-------------7h9-------------7h9-------------7h9-----|
E|----------------------------------------------------------------|

G|------------------------------------------------7---9-----------|
D|9-------7-------------------------------7---9-----------7-------|
A|------------9---7---------------7---9---------------------------|
E|--------------------9---7---9-----------------------------------|

G|----------------------------------------------------------------|
D|9-----------7---9-----------7---9-----------7---9-----/-9-------|
A|--------7h9-------------7h9-------------7h9-----------------9---|
E|----------------------------------------------------------------|

G|--------7---------------9---------------------------------------|
D|------------7---------------9-----------9-----------7-------7---|
A|5---------------7---------------7---------------7h9-----7h9-----|
E|----------------------------------------------------------------|

1:35

G|----------------------------------------7---------------7-------|
D|9-----------7---9-----/-9-------------------7---------------7---|
A|--------7h9-----------------9---5---------------5---------------|
E|----------------------------------------------------------------|

G|--------9---------------9---------------------------------------|
D|------------9---------------9-----------------------------------|
A|7---------------7---------------7-------------------------------|
E|----------------------------------------------------------------|

G|----------------------------------------7---------------7-------|
D|9-----------7---9-----/-9-\-----------------7---------------7---|
A|--------7h9---------------------5---------------5---------------|
E|----------------------------------------------------------------|

G|--------9-----------9-----------9---------------------------7---|
D|------------9-----------9---------------9-----------7---7h9-----|
A|7---------------7-----------7-------------------7h9-------------|
E|----------------------------------------------------------------|

1:50

G|----------------------------------------------------------------|
D|9-----------7---9-----------7---9-----------7---9-----------7---|
A|--------7h9-------------7h9-------------7h9-------------7h9-----|
E|----------------------------------------------------------------|

G|------------------------------------------------------------9---|
D|9-------7-------------------------------7---------------7-------|
A|------------9---7---------------7---9-------9---7---9-----------|
E|--------------------9---7---9-----------------------------------|

G|----------------------------------------------------------------|
D|9-----------7---9---------------7-----------------------7-------|
A|--------7h9-----------/-9---9-----------------------------------|
E|----------------------------------------------------------------|

G|----------------------------------------------------------------|
D|----------------7-----------------------9-----------7-------7---|
A|------------------------------------------------7h9-----7h9-----|
E|----------------------------------------------------------------|

2:07

G|----------------------------------------7---------------7-------|
D|9-----/-9-------9-----/-9-------------------7---------------7---|
A|----------------------------9---5---------------5---------------|
E|----------------------------------------------------------------|

G|--------9---------------9---------------------------------------|
D|------------9---------------0---9-------9---7-------7-------7---|
A|7---------------7-------------------------------9-------7h9-----|
E|----------------------------------------------------------------|

G|----------------------------------------7---------------7-------|
D|9-----------7---9-----/-9-------------------7---------------7---|
A|--------7h9-----------------9---5---------------5---------------|
E|----------------------------------------------------------------|

G|--------9-----------9-----------9-------------------------------|
D|------------9-----------9---------------9-----------7-------7---|
A|7---------------7-----------7-------------------7h9-----7h9-----|
E|----------------------------------------------------------------|

2:22

G|----------------------------------------------------------------|
D|9-----------7---9-----------7---9-----------7---9-----------7---|
A|--------7h9-------------7h9-------------7h9-------------7h9-----|
E|----------------------------------------------------------------|

G|--------11--9---7---9---7---------------------------------------|
D|9---------------------------9---7-------------------------------|
A|------------------------------------9---7---------------7---9---|
E|--------------------------------------------9---7---9-----------|

G|----------------------------------------------------------------|
D|9-----------7---9-----------7---9-----------7---9-----------7---|
A|--------7h9-------------7h9-------------7h9-----------/-9-------|
E|----------------------------------------------------------------|

G|--------7---------------9---------------------------------------|
D|------------7---------------9-----------9-----------7-------7---|
A|5---------------7---------------7---------------7h9-----7h9-----|
E|----------------------------------------------------------------|

2:38

G|----------------------------------------7---------------7-------|
D|9-----------7---9-----/-9-------------------7---------------7---|
A|--------7h9-----------------9---5---------------5---------------|
E|----------------------------------------------------------------|

G|--------9---------------9-----------------------------------7---|
D|------------9---------------0---9-------9---7-------7---7h9-----|
A|7---------------7-------------------------------9---------------|
E|----------------------------------------------------------------|

G|----------------------------------------7---------------7-------|
D|9-----------7---9-----/-9-------------------7---------------7---|
A|--------7h9-----------------9---5---------------5---------------|
E|----------------------------------------------------------------|

G|--------9-----------9-----------9-------------------------------|
D|------------9-----------9---------------9-----------7-------7---|
A|7---------------7-----------7-------------------7h9-----7h9-----|
E|----------------------------------------------------------------|

2:53

G|----------------------------------------------------------------|
D|9-----------7---9-----------7---9-----------7---9-----------7---|
A|--------7h9-------------7h9-------------7h9-------------7h9-----|
E|----------------------------------------------------------------|

G|----------------------------------------------------------------|
D|9-------7-------------------------------7---------------7-------|
A|------------9---7---------------7---9-------9---7---9-------9---|
E|--------------------9---7---9-----------------------------------|

G|----------------------------------------------------------------|
D|9-----------7---9-----------7---9-----------7---9-----/-9-\-----|
A|--------7h9-------------7h9-------------7h9---------------------|
E|----------------------------------------------------------------|

G|--------7---------------9---------------------------------------|
D|------------7---------------9-----------9-----------7-------7---|
A|5---------------5---------------7---------------7h9-----7h9-----|
E|----------------------------------------------------------------|

3:08

G|----------------------------------------------------------------|
D|9---9-----------------------------------------------------------|
A|--------------------------------5---5---------------------------|
E|----------------------------------------------------------------|

G|----------------------------------------------------------------|
D|--------------------------------9---9---------------------------|
A|7---7-----------------------------------------------------------|
E|----------------------------------------------------------------|

G|----------------------------------------------------------------|
D|9---9-----------------------------------------------------------|
A|--------------------------------5---5---------------------------|
E|----------------------------------------------------------------|

G|----------------------------------------------------------------|
D|----------------------------------------9-----------7-------7---|
A|7---7---------------------------7---------------7h9-----7h9-----|
E|----------------------------------------------------------------|

3:24

G|----------------------------------------------------------------|
D|9-----------7---9-----------7---9-----------7---9-----------7---|
A|--------7h9-------------7h9-------------7h9-------------7h9-----|
E|----------------------------------------------------------------|

G|------------------------------------------------7---9---7---9---|
D|9-------7-------------------------------7---9-------------------|
A|------------9---7---------------7---9---------------------------|
E|--------------------9---7---9-----------------------------------|

G|----------------------------------------------------------------|
D|9-----------7---9-----------7---9-----------7---9-----/-9-------|
A|--------7h9-------------7h9-------------7h9-----------------9---|
E|----------------------------------------------------------------|

G|--------7---------------9---------------------------------------|
D|------------7---------------9-----------9-----------7-------7---|
A|5---------------7---------------7---------------7h9-----7h9-----|
E|----------------------------------------------------------------|

3:41

G|----------------------------------------7---------------7-------|
D|9-----------7---9-----------7---------------7---------------7---|
A|--------7h9-----------/-9-------5---------------5---------------|
E|----------------------------------------------------------------|

G|--------9---------------9---------------------------------------|
D|------------9---------------0---9-------9---7-------7-------7---|
A|7---------------7-------------------------------9-------7h9-----|
E|----------------------------------------------------------------|

G|----------------------------------------7---------------7-------|
D|9-----------7---9-----/-9-\-----------------7---------------7---|
A|--------7h9---------------------5---------------5---------------|
E|----------------------------------------------------------------|

G|--------9---------------9---------------------------------------|
D|------------9---------------------------9-----------7-------7---|
A|7---------------7-----------5---7---------------7h9-----7h9-----|
E|----------------------------------------------------------------|

3:56

G|----------------------------------------------------------------|
D|9-----------7---9-----------7---9-----------7---9-----------7---|
A|--------7h9-------------7h9-------------7h9-------------7h9-----|
E|----------------------------------------------------------------|

G|--------11--9---7---9---7-------------------------------7---9---|
D|9---------------------------9---7---------------7---9-----------|
A|------------------------------------9---7---9-------------------|
E|----------------------------------------------------------------|

G|----------------------------------------------------------------|
D|9-----------7---9-----------7---9-----------7---9-----/-9-\-----|
A|--------7h9-------------7h9-------------7h9---------------------|
E|----------------------------------------------------------------|

G|--------7---------------9---------------------------------------|
D|------------7---------------9-----------9-----------7-------7---|
A|5---------------7---------------7---------------7h9-----7h9-----|
E|----------------------------------------------------------------|

4:12

G|----------------------------------------------------------------|
D|9-----------7---9-----------7---9-----------7---9-----------7---|
A|--------7h9-------------7h9-------------7h9-------------7h9-----|
E|----------------------------------------------------------------|

G|----------------------------------------------------------------|
D|9-------7-------------------------------7---------------7-------|
A|------------9---7---------------7---9-------9---7---9-------9---|
E|--------------------9---7---9-----------------------------------|

G|----------------------------------------------------------------|
D|9-----------7---9-----------7---9-----------7---9-----/-9-\-----|
A|--------7h9-------------7h9-------------7h9---------------------|
E|----------------------------------------------------------------|

G|--------7---------------9---------------------------------------|
D|------------7---------------9-----------9-----------------------|
A|5---------------7---------------7-------------------------------|
E|----------------------------------------------------------------|

G|----------------------------------------------------------------|
D|------------------------------/-9-------------------------------|
A|----------------------------------------------------------------|
E|----------------------------------------------------------------|

            
            
Suggest correction
Creating personal tab
Creating personal tab
You can edit any tab online and save it as your Personal.

You can edit, replace or remove any tab part or add personal notes – all changes will be seen only by you.

Personal tabs can be accessed anytime from any device, even offline.
Learn more »
Give kudos to tab author, rate the tab!
1 2 3 4 5
comments
print report bad tab
2 comments total.
+1 reply
Unossofrus 1,644 Feb 24, 2016 10:46 AM

Love it! difficult to play but not out of my skill range. Very accurate too.

guest
You may want to rate the tab now too:
select rating
Wanna post a correction for this tab? Suggest correction