Oops, an error
Loading. Please wait.

Sheepcrook And Black Dog bass

136 views 1 this week
no commentswrite comment
1 2 3 4 5
3 more votes to show rating
add to favorites
×
Save as Personal and add changes to this tab that will be seen only by you. Learn more ›
×
You can save this tab as Personal to edit and correct it or add notes. All changes will be seen only by you. Learn more »
launch autoscroll
font size
0
reset
guitar tuner
edit
Autoscroll
slow
fast
+/-
esc
set tempo
stop
Author
Difficulty
Tabbed by: 6METAL6BASSIST6
E-mail: petergriffinav@gmail.com

Tuning: EADG

G|--------|
D|----10--|
A|8-------|
E|--------|

0:09

G|--------------------------------------------------------|.
D|----------------------------10--------------------------|.
A|6-----------------------8-------6-----------------------|.
E|--------------------------------------------------------|.
                                                           . x2
G|--------------------------------------------------------|.
D|----------------------------------------------------10--|.
A|8---------------10--------------8---------------8-------|.
E|------------------------8-------------------------------|.

0:32

G|--------------------------------------------------------|
D|----------------------------10--------------------------|
A|6-----------------------8-------6-----------------------|
E|--------------------------------------------------------|

G|--------------------------------------------------------|
D|--------------------------------------------------------|
A|8---------------10--------------8-------6---------------|
E|------------------------8-----------------------6-------|

G|--------------------------------------------------------|
D|--------8---------------10------------------------------|
A|5---8-------8-------7-------10--7-------8---------------|
E|----------------8-------------------8-------------------|

G|--------------------------------------------------------|
D|--------------------------------------------------------|
A|6-------8-----------------------------------------------|
E|--------------------------------------------------------|

G|------------------------|
D|--------------------10--|
A|----------------8-------|
E|------------------------|

1:00

G|--------------------------------------------------------|.
D|----------------------------10--------------------------|.
A|6-----------------------8-------6-----------------------|.
E|--------------------------------------------------------|.
                                                           . x2
G|--------------------------------------------------------|.
D|----------------------------------------------------10--|.
A|8---------------10--------------8---------------8-------|.
E|------------------------8-------------------------------|.

1:23

G|--------------------------------------------------------|
D|----------------------------10--------------------------|
A|6-----------------------8-------6-----------------------|
E|--------------------------------------------------------|

G|--------------------------------------------------------|
D|--------------------------------------------------------|
A|8---------------10--------------8-------6---------------|
E|------------------------8-----------------------6---6---|

G|--------------------------------------------------------|
D|--------8---------------10----------------------6-------|
A|5---8-------8-------7-----10-7------7---8---------------|
E|----------------8---------------8-----------------------|

G|--------------------------------------------------------|
D|--------------------------------------------------------|
A|6-------8-----------------------------------------------|
E|--------------------------------------------------------|

G|----------------------------|
D|----------------------------|
A|----------------------------|
E|----------------------------|

G|------------------------------------------------------------------------------------------------|
D|------------------------------------------------------------------------------------------------|
A|------------------------------------------------------------------------------------------------|
E|------------------------------------------------------------------------------------------------|

G|----------------------------|
D|----------------------------|
A|----------------------------|
E|----------------------------|

2:00

G|------------------------------------------------------------------------------------------------|
D|------------------------------------------------6-----------------------------------------------|
A|8-----------------------6-----------------------------------------------6-----------------------|
E|------------------------------------------------------------------------------------------------|

G|------------------------------------------------------------------------------------------------|
D|------------------------6-----------------------------------------------------------------------|
A|8---------------------------------------------------------------------------------------7---10--|
E|------------------------------------------------4-----------------------8-------10--------------|

G|------------------------------------------------------------------------------------------------|
D|------------------------6-----------------------------------------------------------------------|
A|8-----------------------------------------------8-----------------------------------------------|
E|------------------------------------------------------------------------8-----------------------|

G|------------------------------------------------------------------------------------------------|
D|------------------------------------------------------------------------------------------------|
A|------------------------------------------------8---------------6-------8-----------------------|
E|6-----------------------8-----------------------------------------------------------------------|

G|13--12--10--------------|
D|------------10------10--|
A|----------------11------|
E|------------------------|

2:32

G|----------------------------------------8-----------------------8-----------------------8-------|
D|--------------------------------------------8---6-------------------------------------------8---|
A|8-----------------------6-----------------------------------------------6-----------------------|
E|------------------------------------------------------------------------------------------------|

G|----------------------------------------8-----------------------5---8---------------------------|
D|----------------10------6-----------------------------------6---------------------------10------|
A|8-------------------8-------------------------------3---6-----------------------7---10------10--|
E|------------------------------------------------4-----------------------8---10------------------|

G|----------------------------------------8-------------------------------------------------------|
D|----------------10------6-------------------6---------------------------------------------------|
A|8-------------------8---------------------------8---------------8-------------------------------|
E|------------------------------------------------------------------------8---------------8-------|

G|------------------------------------------------------------------------------------------------|
D|--------------------------------------------------------------------------------------------10--|
A|------------------------------------------------8---------------6-------8-----------------------|
E|6-----------------------8-----------------------------------------------------------------------|

G|------------------------|
D|--------------------10--|
A|8-----------------------|
E|------------------------|

3:04

G|----------------------------------------8-----------------------8-------------------------------|
D|----------------10--------------------------8---6-------------------6-------------------8-------|
A|8-------------------8---6-----------------------------------------------6-------------------6---|
E|------------------------------------------------------------------------------------------------|

G|----------------------------------------8-------------------------------------------------------|
D|------------------------6---------------------------------------6-----------------------10------|
A|8-------------------------------------------------------3---6-------------------7---10------10--|
E|------------------------------------------------4-----------------------8---10------------------|

G|----------------------------------------8-------------------------------------------------------|
D|----------------10------6-------------------6---------------------------------------------------|
A|8-------------------8---------------------------8---------------8-------------------------------|
E|------------------------------------------------------------------------8-----------------------|

G|------------------------------------------------------------------------------------------------|
D|------------------------------------------------------------------------------------------------|
A|------------------------------------------------8---------------6-------8-----------------------|
E|6---6---6---6---6---6---8---8---8---8---8---8---------------------------------------------------|

G|--------------------------------|
D|--------------------------------|
A|--------------------------------|
E|--------------------------------|

G|--------------------------------------------------------|
D|--------------------------------------------------------|
A|--------------------------------------------------------|
E|--------------------------------------------------------|

G|------------------------------------------------------------|
D|------------------------------------------------------------|
A|------------------------------------------------------------|
E|------------------------------------------------------------|

3:50

G|--------------------------------------------------------|.
D|----------------------------10--------------------------|.
A|6-----------------------8-------6-----------------------|.
E|--------------------------------------------------------|.
                                                           . x2
G|--------------------------------------------------------|.
D|----------------------------------------------------10--|.
A|8---------------10--------------8---------------8-------|.
E|------------------------8-------------------------------|.

4:14

G|--------------------------------------------------------|
D|----------------------------10--------------------------|
A|6-----------------------8-------6-----------------------|
E|--------------------------------------------------------|

G|--------------------------------------------------------|
D|--------------------------------------------------------|
A|8---------------10--------------8-------6---------------|
E|------------------------8-----------------------6-------|

G|--------------------------------------------------------|
D|--------8---------------10------------------------------|
A|5---8-------8-------7-----10-7------7---8---------------|
E|----------------8---------------8-----------------------|

G|--------------------------------------------------------|
D|--------------------------------------------------------|
A|6-------8-----------------------------------------------|
E|--------------------------------------------------------|

            
            
Suggest correction
Creating personal tab
Creating personal tab
You can edit any tab online and save it as your Personal.

You can edit, replace or remove any tab part or add personal notes – all changes will be seen only by you.

Personal tabs can be accessed anytime from any device, even offline.
Learn more »
Give kudos to tab author, rate the tab!
1 2 3 4 5
comments
print report bad tab
guest
You may want to rate the tab now too:
select rating
Wanna post a correction for this tab? Suggest correction