Oops, an error
Loading. Please wait.

Aja bass

version 1
version 1

Whole song

Interactive

771 views 15 this week
no commentswrite comment
1 2 3 4 5
2 more votes to show rating
add to favorites
×
Save as Personal and add changes to this tab that will be seen only by you. Learn more ›
×
You can save this tab as Personal to edit and correct it or add notes. All changes will be seen only by you. Learn more »
launch autoscroll
font size
0
reset
guitar tuner
backing track
0:00
0:00
edit
Autoscroll
slow
fast
+/-
esc
set tempo
stop
Author
Difficulty
                                       Aja
                                    Steely Dan

Bass                                                              Donald Fagen
                                                                 Walter Becker
As played by Chuck Rainey


Intro

|-----------------|-----------------|-----------------|-----------------|
|-----------------|---------------4-|-----------------|-----------------|
|-2---------------|(2)--------------|-2---------------|(2)--------------|
|-----------------|-----------------|-----------------|-------------2---|
  W                 H.          E E   W                 H.          Q

|-----------------|-----------------|-----------------|-----------------|
|-----------------|---------------4-|-----------------|-----------------|
|-2---------------|(2)--------------|-2---------------|(2)--------------|
|-----------------|-----------------|-----------------|-----------2-2-2-|
  W                 H.          E E   W                 H       E E E E

Verse 1

|-------4-4-------|---------4-------|---------4-------|-----------------|
|-----------------|-------4-----4---|-------4---------|-4-------2-------|
|-2-------------2-|(2)------------2-|(2)----------2---|-----------------|
|-------------2---|-----------------|-----------------|-------------0---|
  Q.    E Q   E E   Q.    E Q   E E   Q.    E Q   Q     H       Q   Q

|-----------------|-----4/6\4-------|-----------------|-----------------|
|-----------------|-----------------|-----------------|-----5/7/5-------|
|-2---------------|(2)----------2---|-3---------------|(3)----------3---|
|-----------------|-----------------|-----------------|-----------------|
  W                 Q.  S S Q   Q     W                 Q.  S S Q   Q

|-----------------|-----7/9\7-------|
|-----------------|-----------------|
|-5---------------|(5)----------5-7-|
|-----------------|-----------------|
  W                 Q.  S S Q   E E 

Chorus 1

|-----------------|-----------------|-----------------|-----------------|
|-----------------|-----------------|-----------------|---------5-------|
|-----------------|-----------------|-----------------|-----------------|
|-0-----0-0---0---|-0-----0-0-----2-|-3-----3-----3---|-3---x-3---------|
  Q.    E Q   Q     Q.    E Q.    E   Q.    Q.    Q     Q S S E H

|-----------------|-----------------|-----------------|-----------------|
|-4---------------|-----------------|-----------------|---------6-------|
|-------6-6-----6-|-6-----6-6-x-----|-----------------|-------6---------|
|-----------------|-------------2-3-|-4-----4-4-----4-|---4---------4---|
  Q.    E Q.    E   Q.    E E.S E E   Q.    E Q.    E   E E E E Q   Q

|-----------------|-----------------|-----------------|-----------------|
|-----------------|-----------------|-----------------|-----------------|
|-----------------|-----------------|-3-----3-3---x-x-|-3-----3-3---3---|
|-0-----0-0---0---|-0-----0-0---3-0-|-----------------|-----------------|
  Q.    E Q   Q     Q.    E Q   E E   Q.    E Q.  S S   Q.    E Q   Q

                    3/4           4/4
|-----------------|-------------|-----------------|-----------------|
|-----------------|-------------|-----------------|---------------4-|
|-----------------|-4-----------|-3---------------|(3)--------------|
|-1-------3-------|-------------|-----------------|-----------------|
  H       H         H.            W                 H.          E E

|-----------------|-----------------|-----------------|-----------------|
|-----------------|-----------------|-----------------|-----------------|
|-2---------------|(2)--------------|-2---------------|(2)--------------|
|-----------------|-------------2---|-----------------|-----------2-2-2-|
  W                 H.          Q     W                 H       E E E E

Verse 2

|-----------------|---------4-------|---------4-------|-----------------|
|-------4---------|-------4-----4---|-------4---------|-4-------2-------|
|-2-------------2-|(2)------------2-|(2)----------2---|-----------------|
|-------------2---|-----------------|-----------------|-------------0---|
  Q.    E Q   E E   Q.    E Q   E E   Q.    E Q   Q     H       Q   Q

|-----------------|-----4/6\4-------|-----------------|-----------------|
|-----------------|-----------------|-----------------|-----5/7/5-------|
|-2---------------|(2)----------2---|-3---------------|(3)----------3---|
|-----------------|-----------------|-----------------|-----------------|
  W                 Q.  S S Q   Q     W                 Q.  S S Q   Q

|-----------------|-----7/9\7-------|
|-----------------|-----------------|
|-5---------------|(5)----------5---|
|-----------------|-----------------|
  W                 Q.  S S Q   Q 

Chorus 2

|-----------------|-----------------|-----------------|-----------------|
|-----------------|-----------------|-----------------|---------5-------|
|-----------------|-----------------|-----------------|-----------------|
|-0-----0-0---0---|-0-----0-0-----2-|-3-----3-----2-3-|-3-----3-------3-|
  Q.    E Q   Q     Q.    E Q.    E   Q.    Q.    E E   Q.    E Q.    E

|-----------------|-----------------|-----------------|-----------------|
|-4---------------|-----------------|-----------------|---------6-------|
|---------6-----6-|-6-----6-6-x-----|-----------------|-------6---------|
|-----------------|-------------2-3-|-4-----4-4-----4-|---4---------4---|
  H       Q.    E   Q.    E E.S E E   Q.    E Q.    E   E E E E Q   Q

|-----------------|-----------------|---------5-------|---------5-------|
|-----------------|-----------------|-----------------|-----------------|
|-----------------|---------------0-|-3-----3-----x-x-|-3-----3-----3---|
|-0-----0-0-----0-|-0-----0-0-------|-----------------|-----------------|
  Q.    E Q.    E   Q.    E Q.    E   Q.    E Q.  S S   Q.    E Q   Q

                    3/4           4/4
|-----------------|-------------|-----------------|-----------------|
|-----------------|-------------|-----------------|-----------------|
|-----------------|-4-----------|-3---------------|(3)--------------|
|-1-------3-------|-------------|-----------------|-----------------|
  H       H         H.            W                 W

|-----------------|-----------------|
|-------2---------|-----------------|
|-2---------------|-----------------|
|-----------------|-----------------|
  Q.    E H         W

Interlude 1

|-----------------|-----------------|-----------------|-----------9-12-14-|
|-----------5-----|-----------5-----|-----------5-----|-------------------|
|-------7-------7-|-------7-------7-|-------7-------7-|-------------------|
|-5---------------|-5---------------|-5---------------|-5-----0-----------|
  Q.    Q   Q   E   Q.    Q   Q   E   Q.    Q   Q   E   Q.    Q.  S S  E  

|-----------------|-----------------|-----------------|-----------------|
|-----------5-----|-----------5-----|-----------5-----|-----------5-----|
|-------7-------7-|-------7-------7-|-------7-------7-|-------7-------7-|
|-5---------------|-5---------------|-5---------------|-5---------------|
  Q.    Q   Q   E   Q.    Q   Q   E   Q.    Q   Q   E   Q.    Q   Q   E 

Guitar Solo
                                                          2/4
||------------------|-----------------|-----------------|---------|
||o-----------5-----|-----------5-----|-----------5-----|---------|
||o-------7-------7-|-------7-------7-|-------7-------7-|---------|
||--5---------------|-5---------------|-5---------------|-5-------|
    Q.    Q   Q   E   Q.    Q   Q   E   Q.    Q   Q   E   H
 
  4/4
|-----------------|-----------------|-----------------|------------------||
|-----------3-----|-----------3-----|-----------------|-----------------o||
|-------5-------5-|-------5-------5-|-----------------|-----------------o||
|-3---------------|-3---------------|-2-----2---------|-2-----2----------||
  Q.    Q   Q   E   Q.    Q   Q   E   Q.    E H         Q.    E H

|-----------------|-----------------|-----------------|-----------------|
|-----------------|-----------------|-----------------|-----------------|
|-----------------|-----------------|-3---3-----3-----|-3-----3---------|
|-3---------------|(3)--------------|-----------------|-----------------|
  W                 W                 Q   Q.    Q.      Q.    Q.    Q

                    2/4       4/4
|-----------------|---------|-----------------|-----------------|
|-----------------|---------|-----------------|-----------------|
|-3---------3-----|-3-------|-----------------|-----------------|
|-----------------|---------|-0-------0-------|-0-------0-------|
  Q   Q.    Q.      H         H       H         H       H

                    3/4           4/4               2/4       4/4
|-----------------|-------------|-----------------|---------|-----------------|
|-----------------|-------------|-4---------------|(4)------|-----------------|
|-----------------|-------------|-----------------|---------|-----------------|
|-2-----3-------5-|-5-----3-----|-----------------|---------|-1---------------|
  Q.    Q.    E E   Q.    Q.      W                 H         W

|-----------------|-----------------|-----------------|-----------------|-----------------|
|-----------------|-----------5-----|-----------5-----|-----------5-----|-----------5-----|
|-----------------|-------7-------7-|-------7-------7-|-------7-------7-|-------7-------7-|
|-1-------3-------|-5---------------|-5---------------|-5---------------|-5---------------|
  H       H         Q.    Q   Q   E   Q.    Q   Q   E   Q.    Q   Q   E   Q.    Q   Q   E

                                                          2/4
||------------------|-----------------|-----------------|---------|
||o-----------5-----|-----------5-----|-----------5-----|---------|
||o-------7-------7-|-------7-------7-|-------7-------7-|---------|
||--5---------------|-5---------------|-5---------------|-5-------|
    Q.    Q   Q   E   Q.    Q   Q   E   Q.    Q   Q   E   H
 
  4/4
|-----------------|-----------------|-----------------|------------------||
|-----------3-----|-----------3-----|-----------------|-----------------o||
|-------5-------5-|-------5-------5-|-----------------|-----------------o||
|-3---------------|-3---------------|-2-----2---------|-2-----2----------||
  Q.    Q   Q   E   Q.    Q   Q   E   Q.    E H         Q.    E H

|-----------------|-----------------|-----------------|-----------------|
|-----------------|-----------------|-----------------|-----------------|
|-----------------|-----------------|-3---3-----3-----|-3-----3---------|
|-3---------------|(3)--------------|-----------------|-----------------|
  W                 W                 Q   Q.    Q.      Q.    Q.    Q

                    2/4       4/4
|-----------5-----|---------|-----------------|-----------------|
|-----------------|---------|-----------------|-----------------|
|-3---------------|-3-------|-----------------|-----------------|
|-----------------|---------|-0---------------|-0---------------|
  Q   Q.    Q.      H         W                 W   

                    3/4           4/4               2/4       4/4
|-----------------|-------------|-----------------|---------|-----------------|
|-----------------|-------------|-4---------------|(4)------|-----------------|
|-----------------|-------------|-----------------|---------|-----------------|
|-2-----3-------5-|-5-----3-----|-----------------|---------|-1---------------|
  Q.    Q.    E E   Q.    Q.      W                 H         W

|-----------------|-----------------|-----------------|-----------------|
|-----------------|-----------------|-----------------|-----------------|
|-----------------|-----------------|-----------------|-3---------------|
|-1---------------|-1---------------|-3-------1-------|-----------------|
  W                 W                 H       H         W

Sax Solo

|-----------------|-----------------|-----------------|-----------------|
|-----------------|-----------------|-----------------|-----------------|
|-3-----2---------|-2---2---2-------|-----2---2-------|-----2---2-------|
|-----------------|-----------------|-----------------|-----------------|
  Q   E E H         E E E E E E Q     Q   E E E E Q     Q   E E E E Q

|-----------------|-----------------|-----------------|-----------------|
|-----------------|-----------------|-----------------|-----------------|
|-------2---------|-2---2---2-------|-----2---2-------|-----2---2-------|
|-----------------|-----------------|-----------------|-----------------|
  Q   E E H         E E E E E E Q     Q   E E E E Q     Q   E E E E Q

|-----------------|-----------------|-----------------|-----------------|
|-----------------|-4---------------|---3-----2-------|-1-------0-------|
|---3-----4-------|-----------------|-----------------|-----------------|
|-----------------|-----------------|-----------------|-----------------|
  E Q.    H         W                 E Q.    H         H       H

|-----------------|-----------------|-----------------|-----------------|
|-1---------------|-----------------|-----------------|-----------------|
|-----------------|-----------------|-----------------|-3---------------|
|-------2---------|(2)--------------|-3-------1-------|-----------------|
  Q.    E H         W                 H       H         W

|-----------------|-----------------|-----------------|-----------------|
|-----------------|-----------------|-----------------|-----------------|
|-3-----2---------|-2---2---2-------|-----2---2-------|-----2---2-------|
|-----------------|-----------------|-----------------|-----------------|
  Q   E E H         E E E E E E Q     Q   E E E E Q     Q   E E E E Q

|-----------------|-----------------|-----------------|-----------------|
|-----------------|-----------------|-----------------|-----------------|
|-------2---------|-2---2---2-------|-----2---2-------|-----2---2-------|
|-----------------|-----------------|-----------------|-----------------|
  Q   E E H         E E E E E E Q     Q   E E E E Q     Q   E E E E Q

|-----------------|-----------------|-----------------|-----------------|
|-----------------|-4---------------|---3-----2-------|-1-------0-------|
|---3-----4-------|-----------------|-----------------|-----------------|
|-----------------|-----------------|-----------------|-----------------|
  E Q.    H         W                 E Q.    H         H       H

                                      3/4
|-----------------|-----------------|-------------|-----------------|-----------------|
|-1---------------|-----------------|-------------|-----------------|---------------4-|
|-----------------|-----------------|-4-----------|-3---------------|-----------------|
|-------2---------|(2)--------------|-------------|-----------------|-----------------|
  Q.    E H         W                 H.            W                 H.          E E

Interlude 3

|-----------------|-----------------|-----------------|-----------------|
|-----------------|---------------4-|-----------------|---------------4-|
|-2---------------|(2)--------------|-2---------------|(2)--------------|
|-----------------|-----------------|-----------------|-----------------|
  W                 H.          E E   W                 H.          E E

|-----------------|-----------------|-----------------|-----------------|
|-----------------|---------------4-|-----------------|-----------------|
|-2---------------|(2)--------------|-2---------------|(2)--------------|
|-----------------|-----------------|-----------------|-----------2-2-2-|
  W                 H.          E E   W                 H       E E E E

Verse 3

|-----------------|---------4-------|---------4-------|-----------------|
|-------4-4-------|-------4-----4---|-------4---------|-4-------2-------|
|-2-------------2-|(2)------------2-|(2)----------2---|-----------------|
|-------------2---|-----------------|-----------------|-------------0---|
  Q.    E Q   E E   Q.    E Q   E E   Q.    E Q   Q     H       Q   Q

|-----------------|-----4/6\4-------|-----------------|-----------------|
|-----------------|-----------------|-----------------|-----5/7/5-------|
|-2---------------|(2)----------2---|-3---------------|(3)----------3---|
|-----------------|-----------------|-----------------|-----------------|
  W                 Q.  S S Q   Q     W                 Q.  S S Q   Q

|-----------------|-----7/9\7-------|
|-----------------|-----------------|
|-5---------------|(5)----------5-7-|
|-----------------|-----------------|
  W                 Q.  S S Q   E E 

Chorus 3

|-----------------|-----------------|-----------------|-----------------|
|-----------------|-----------------|-----------------|---------5-------|
|-----------------|-----------------|-----------------|-----------------|
|-0-----0-0---0---|-0-----0-0-----2-|-3-----3-----3---|-3-----3-------3-|
  Q.    E Q   Q     Q.    E Q.    E   Q.    Q.    Q     Q.    E Q.    E

|-----------------|-----------------|-----------------|-----------------|
|-4-------------4-|-----------------|-----------------|---------6-------|
|---------6-------|-6-----6-6-x-----|-----------------|-------6---------|
|-----------------|-------------2-3-|-4-----4-4-----4-|---4---------4---|
  H       Q.    E   Q.    E E.S E E   Q.    E Q.    E   E E E E Q   Q

|-----------------|-----------------|-----------------|-5---------------|
|-----------------|-----------------|-----------------|-----------------|
|-----------------|-----------------|-3-----3-3-----3-|-------3-3-------|
|-0-----0-0---0---|-0-----0-0-----0-|-----------------|-----------------|
  Q.    E Q   Q     Q.    E Q.    E   Q.    E Q.    E   Q.    E H

                    3/4           4/4               2/2
|-----------------|-------------|-----------------|---------|
|-3-------5-------|-------------|-----------------|---------|
|-----------------|-4-----------|-3---------------|(3)------|
|-----------------|-------------|-----------------|---------|
  H       H         H.            W                 H

Outro
                                                             Repeat to fade
||------------------|-----------------|-----------------|------------------||
||o-----------------|-----------------|-----------------|-----------------o||
||o-------2---------|-2---2---2-------|-----2---2-------|-----2---2-------o||
||------------------|-----------------|-----------------|------------------||
    Q.    E H         E E E E E E Q     Q   E E E E Q     Q   E E E E Q


Key to rhythm notations:

W - Whole Note/Semi-Brieve
H - Half Note/Minim
Q - Quarter Note/Crotchet       Q. - Dotted Quarter Note
E - Eight Note/Quaver           E. - Dotted Eight Note
S - Sixteenth Note/Semi-Quaver  S. - Dotted Sixteenth Note

            
            
Suggest correction
Creating personal tab
Creating personal tab
You can edit any tab online and save it as your Personal.

You can edit, replace or remove any tab part or add personal notes – all changes will be seen only by you.

Personal tabs can be accessed anytime from any device, even offline.
Learn more »
Give kudos to tab author, rate the tab!
1 2 3 4 5
comments
print report bad tab
guest
You may want to rate the tab now too:
select rating
Wanna post a correction for this tab? Suggest correction