Oops, an error
Loading. Please wait.

Bodhisattva bass

version 1
version 1

Whole song

Interactive

562 views 1 this week
1 commentread comment
1 2 3 4 5
1 last vote to show rating
add to favorites
×
Save as Personal and add changes to this tab that will be seen only by you. Learn more ›
×
You can save this tab as Personal to edit and correct it or add notes. All changes will be seen only by you. Learn more »
launch autoscroll
font size
0
reset
guitar tuner
backing track
0:00
0:00
edit
Autoscroll
slow
fast
+/-
esc
set tempo
stop
Author
Difficulty
                                    Bodhisattva
                                     Steely Dan

Bass                                                              Donald Fagen
                                                                 Walter Becker
As played by Walter Becker

In 2/2
       ___
      | 3 |
E E = Q   E


Intro

|-----------------|-----------------|-----------------|-----------------|
|-----------------|-----------------|-----------------|-----------------|
|-----------------|-----------------|-----------------|-----------------|
|-----------------|-----------------|-----------------|---------3-----1-|
  W                 W                 W                 H       Q.    E


|-----------------|-----------------|-----------------|-----------------|
|-----------------|-----------------|-----------------|-----------------|
|-----------------|-----------------|-----------------|-----------------|
|(1)--------------|(1)--------------|(1)--------------|---------3-----1-|
  W                 W                 W                 H       Q.    E

|-----------------|-----------------|-----------------|-----------------|
|-----------------|-----------------|-----------------|-----------------|
|-----------------|-----------------|-----------------|-----------------|
|(1)--------------|(1)--------------|(1)--------------|(1)--------------|
  W                 W                 W                 W
                                                                         x8
||------------------|-----------------|-----------------|------------------||
||o-----------------|-----------------|-----------------|-----------------o||
||o-----------------|-----------------|-----------------|-----------------o||
||--3-----1-----3---|(3)1-------------|-3-----1-----3---|(3)1--------------||
    Q.    Q.    Q     E Q.    H         Q.    Q.    Q     E Q.    H

|-----------------|-----------------|-----------------|-----------------|
|-----------------|-----------------|-----------------|-----------------|
|-----------------|-----------------|-----------------|-----------5-----|
|-3-----1-----3---|(3)1-------------|-3-----1-----3---|(3)--5-7-----7---|
  Q.    Q.    Q     E Q.    H         Q.    Q.    Q     E E E Q   E Q

|-----------------|-----------------|-----------------|-----------------|
|-----------------|-----------------|-----------------|-------------5---|
|-----------------|-----------------|-----------------|-----------5-----|
|-3---------------|(3)--------------|(3)--------------|(3)--5-7---------|
  W                 W                 W                 E E E Q   E Q

|-----------------|-----------------|-----------------|-----------------|
|-----------------|-----------------|-----------------|-----------------|
|-----------------|-----------------|-----------------|-----------------|
|-3---------------|(3)--------------|(3)--------------|-3---------------|
  W                 W                 W                 E E H.

Verse 1

|-----------------|-----------------|-----------------|-----------------|
|-----------------|-----------------|-----------------|-----------------|
|-----------5-7---|-----------5-7---|-----------5-7---|-----------5-7---|
|-3-----6/7-------|-3-----6/7-------|-3-----6/7-------|-3-----6/7-------|
  Q.    E E E Q     Q.    E E E Q     Q.    E E E Q     Q.    E E E Q   

|-----------------|-----------------|-----------------|-----------------|
|-----------5-7---|-----------5-7---|-----------------|-----------------|
|-3-----6/7-------|-3-----6/7-------|-----------5-7---|-----------5-7---|
|-----------------|-----------------|-3-----6/7-------|-3-----6/7-------|
  Q.    E E E Q     Q.    E E E Q     Q.    E E E Q     Q.    E E E Q   

|-----------------|-----------------|-----------------|-----------------|
|-------4---5-6---|-7-----7/9\7-----|-------2-3-5-----|-3-------3-5-----|
|-6---------------|-------------8---|-5-----------3---|-------5-----5---|
|-----------------|-----------------|-----------------|-----------------|
  Q.    Q   E Q     Q.    E E E Q     Q.    E E E Q     Q.    E E E Q   

|-----------------|-----------------|-----------7-9---|-----------7-9---|
|-------4/5-8-----|-3-----3/6-7-3---|-5-----8/9-------|-5-----8/9-------|
|-6-----------6---|-----------------|-----------------|-----------------|
|-----------------|-----------------|-----------------|-----------------|
  Q.    E E E Q     Q.    E E E Q     Q.    E E E Q     Q.    E E E Q   

Verse 2

|-----------7-9---|-----------7-9---|-----------------|-----------------|
|-5-----8/9-------|-5-----8/9-------|-----------------|-----------------|
|-----------------|-----------------|-----------5-7---|-----------5-7---|
|-----------------|-----------------|-3-----6/7-------|-3-----6/7-------|
  Q.    E E E Q     Q.    E E E Q     Q.    E E E Q     Q.    E E E Q   

|-----------------|-----------------|-----------------|-----------------|
|-----------5-7---|-----------5-7---|-----------------|-----------------|
|-3-----6/7-------|-3-----6/7-------|-----------5-7---|-----------5-7---|
|-----------------|-----------------|-3-----6/7-------|-3-----6/7-------|
  Q.    E E E Q     Q.    E E E Q     Q.    E E E Q     Q.    E E E Q   

|-----------------|-----------------|-----------------|-----------------|
|-------4-5-8-5---|-7-----7/9\7-----|---------2-5-----|-3-------3-5-----|
|-6---------------|-------------8---|-5-----5-----3---|-------5-----5---|
|-----------------|-----------------|-----------------|-----------------|
  Q.    E E E Q     Q.    E E E Q     Q.    E E E Q     Q.    E E E Q   

|-----------------|---------2-5-----|-----------7-9---|-----------7-9---|
|-------4/5-8-----|-3-----3-----3---|-5-----8/9-------|-5-----8/9-------|
|-6-----------6---|-----------------|-----------------|-----------------|
|-----------------|-----------------|-----------------|-----------------|
  Q.    E E E Q     Q.    E E E Q     Q.    E E E Q     Q.    E E E Q   

|-----------------|-----------------|-----------------|-----------------|
|-5---------------|-----------------|-----------------|-----------------|
|-----------------|-----------------|-----------------|-----------------|
|-----------------|-----------------|-----------------|-----------------|
  Q   Q   H         W                 W                 W

Solo Part 1

|-----------------|-----------------|-----------------|-----------------|
|-----------------|-----------------|-----------------|-----------------|
|-----------5-7---|-----------5-7---|-----------5-7---|-----------5-7---|
|-3-----6/7-------|-3-----6/7-------|-3-----6/7-------|-3-----6/7-------|
  Q.    E E E Q     Q.    E E E Q     Q.    E E E Q     Q.    E E E Q   

|-----------------|-----------------|-----------------|-----------------|
|-----------5-7---|-----------5-7---|-----------------|-----------------|
|-3-----6/7-------|-3-----6/7-------|-----------5-7---|-----------5-7---|
|-----------------|-----------------|-3-----6/7-------|-3-----6/7-------|
  Q.    E E E Q     Q.    E E E Q     Q.    E E E Q     Q.    E E E Q   

|-----------------|-----------------|-----------------|-----------------|
|-------4-5-8-5---|-7-----7/9\7-----|---------2-5-----|-3-------3-5-----|
|-6---------------|-------------8---|-5-----5-----3---|-------5-----5---|
|-----------------|-----------------|-----------------|-----------------|
  Q.    E E E Q     Q.    E E E Q     Q.    E E E Q     Q.    E E E Q   

|-----------------|---------2-5-----|-----------7-9---|-----------7-9---|
|-------4/5-8-----|-3-----3-----3---|-5-----8/9-------|-5-----8/9-------|
|-6-----------6---|-----------------|-----------------|-----------------|
|-----------------|-----------------|-----------------|-----------------|
  Q.    E E E Q     Q.    E E E Q     Q.    E E E Q     Q.    E E E Q   

|-----------7-9---|-----------7-9---|
|-5-----8/9-------|-5-----8/9-------|
|-----------------|-----------------|
|-----------------|-----------------|
  Q.    E E E Q     Q.    E E E Q

Solo Part 2

|-----------------|-----------------|-----------------|-----------------|
|-----------------|-----------------|-----------------|-----------------|
|-----------5-7---|-----------5-7---|-----------5-7---|-----------5-7---|
|-3-----6/7-------|-3-----6/7-------|-3-----6/7-------|-3-----6/7-------|
  Q.    E E E Q     Q.    E E E Q     Q.    E E E Q     Q.    E E E Q   

|-----------------|-----------------|-----------------|-----------------|
|-----------5-7---|-----------5-7---|-----------------|-----------------|
|-3-----6/7-------|-3-----6/7-------|-----------5-7---|-----------5-7---|
|-----------------|-----------------|-3-----6/7-------|-3-----6/7-------|
  Q.    E E E Q     Q.    E E E Q     Q.    E E E Q     Q.    E E E Q   

|-----------------|-----------------|-----------------|-----------------|
|-----------------|-----------------|-----------------|-----------------|
|-6---------------|---------------5-|(5)--------------|---------------6-|
|---------------5-|(5)--------------|-----------------|-1---------------|
  Q   Q   Q.    E   E E Q   Q.    E   E E Q   H         Q   Q   Q.    E

|-----------------|-----------------|-----------------|-----------------|
|---------------3-|(3)--------------|-----------------|-----------------|
|(6)--------------|-----------------|-----------------|-----------------|
|-----------------|-----------------|-3---------------|-----------------|
  E E Q   Q.    E   E E Q   H         Q   Q   H         W

|-----------------|-----------------|
|-----------------|-----------------|
|-----------------|-------------10\-|
|-----------------|-----------------|
  W                 H.          Q

Solo Part 3

|-----------------|-----------------|-----------------|-----------------|
|-----------------|-----------------|-----------------|-----------------|
|-----------5-7---|-----------5-7---|-----------5-7---|-----------5-7---|
|-3-----6/7-------|-3-----6/7-------|-3-----6/7-------|-3-----6/7-------|
  Q.    E E E Q     Q.    E E E Q     Q.    E E E Q     Q.    E E E Q   

|-----------------|-----------------|-----------------|-----------------|
|-----------5-7---|-----------5-7---|-----------------|-----------------|
|-3-----6/7-------|-3-----6/7-------|-----------5-7---|-----------5-7---|
|-----------------|-----------------|-3-----6/7-------|-3-----6/7-------|
  Q.    E E E Q     Q.    E E E Q     Q.    E E E Q     Q.    E E E Q   

|-----------------|-----------------|-----------------|-----------------|
|-------4-5-8-5---|-7-----7/9\7-----|---------2-5-----|-3-------3-5-----|
|-6---------------|-------------8---|-5-----5-----3---|-------5-----5---|
|-----------------|-----------------|-----------------|-----------------|
  Q.    E E E Q     Q.    E E E Q     Q.    E E E Q     Q.    E E E Q   

|-----------------|---------2-5-----|-----------7-9---|-----------7-9---|
|-------4/5-8-----|-3-----3-----3---|-5-----8/9-------|-5-----8/9-------|
|-6-----------6---|-----------------|-----------------|-----------------|
|-----------------|-----------------|-----------------|-----------------|
  Q.    E E E Q     Q.    E E E Q     Q.    E E E Q     Q.    E E E Q   

|-----------7-9---|-----------7-9---|
|-5-----8/9-------|-5-----8/9-------|
|-----------------|-----------------|
|-----------------|-----------------|
  Q.    E E E Q     Q.    E E E Q


Solo Part 4

|-----------------|-----------------|-----------------|-----------------|
|-----------------|-----2---3---4---|-5---3---2---1---|-0---------------|
|-----0---1---2---|-5---------------|-----------------|-----3---1---2---|
|-3---------------|-----------------|-----------------|-----------------|
  Q   Q   Q   Q     Q   Q   Q   Q     Q   Q   Q   Q     Q   Q   Q   Q   

|-----------------|-----------------|-----------------|-----------------|
|-----------------|---------2---0---|---------0---2---|-3---4---5-------|
|-----------------|-----2-----------|-----2-----------|-------------2---|
|-3---0---1---2---|-3---------------|-3---------------|-----------------|
  Q   Q   Q   Q     Q   Q   Q   Q     Q   Q   Q   Q     Q   Q   Q   Q   

|-----------------|-0---1---2---1---|-----------------|-----------------|
|---------1---2---|-----------------|-5---3---1---2---|-----------------|
|-3---5-----------|-----------------|-----------------|-3-5-------------|
|-----------------|-----------------|-----------------|-----6---5---4---|
  Q   Q   Q   Q     Q   Q   Q   Q     Q   Q   Q   Q     E E Q   Q   Q   

|-----------------|-----------------|-----------------|-----------------|
|---------0---2---|-3---2---3---4---|-5---------------|-----------------|
|-----2-----------|-----------------|-----1---2---3---|-5-------------6-|
|-3---------------|-----------------|-----------------|-----2---3---4---|
  Q   Q   Q   Q     Q   Q   Q   Q     Q   Q   Q   Q     Q   Q   Q   E E

|-----------------|-----------------|-----------------|-----------------|
|-----------------|-----------------|---------------3-|(3)--------------|
|(6)--------------|---------------5-|(5)--------------|---------------6-|
|---------------5-|(5)--------------|-----------------|-----------------|
  H.          E E   H.          E E   H.          E E   H.          E E  

|-----------------|-----------------|
|---------------3-|(3)--------------|
|(6)--------------|-----------------|
|-----------------|-----------------|
  H.          E E   W

Interlude
                                                                         x8
||------------------|-----------------|-----------------|------------------||
||o-----------------|-----------------|-----------------|-----------------o||
||o-----------------|-----------------|-----------------|-----------------o||
||--3-----1-----3---|(3)1-------------|-3-----1-----3---|(3)1--------------||
    Q.    Q.    Q     E Q.    H         Q.    Q.    Q     E Q.    H

|-----------------|-----------------|-----------------|-----------------|
|-----------------|-----------------|-----------------|-----------------|
|-----------------|-----------------|-----------------|-----------------|
|-3-----1-----3---|(3)1-------------|-3-----1-----3---|(3)--------------|
  Q.    Q.    Q     E Q.    H         Q.    Q.    Q     E E H.

|-----------------|-----------------|
|-3---------------|-----------------|
|-----------------|-----------------|
|-----------------|-3---------------|
  W                 Q   H.

Verse 3

|-----------------|-----------------|-----------------|-----------------|
|-----------------|-----------------|-----------------|-----------------|
|-----------5-7---|-----------5-7---|-----------5-7---|-----------5-7---|
|-3-----6/7-------|-3-----6/7-------|-3-----6/7-------|-3-----6/7-------|
  Q.    E E E Q     Q.    E E E Q     Q.    E E E Q     Q.    E E E Q   

|-----------------|-----------------|-----------------|-----------------|
|-----------5-7---|-----------5-7---|-----------------|-----------------|
|-3-----6/7-------|-3-----6/7-------|-----------5-7---|-----------5-7---|
|-----------------|-----------------|-3-----6/7-------|-3-----6/7-------|
  Q.    E E E Q     Q.    E E E Q     Q.    E E E Q     Q.    E E E Q   

|-----------------|-----------------|-----------------|-----------------|
|-------4-5-8-5---|-7-----7/9\7-----|---------2-5-----|-3-------3-5-----|
|-6---------------|-------------8---|-5-----5-----3---|-------5-----5---|
|-----------------|-----------------|-----------------|-----------------|
  Q.    E E E Q     Q.    E E E Q     Q.    E E E Q     Q.    E E E Q   

|-----------------|---------2-5-----|-----------7-9---|-----------7-9---|
|-------4/5-8-----|-3-----3-----3---|-5-----8/9-------|-5-----8/9-------|
|-6-----------6---|-----------------|-----------------|-----------------|
|-----------------|-----------------|-----------------|-----------------|
  Q.    E E E Q     Q.    E E E Q     Q.    E E E Q     Q.    E E E Q   

Verse 4

|-----------7-9---|-----------7-9---|-----------------|-----------------|
|-5-----8/9-------|-5-----8/9-------|-----------------|-----------------|
|-----------------|-----------------|-----------5-7---|-----------5-7---|
|-----------------|-----------------|-3-----6/7-------|-3-----6/7-------|
  Q.    E E E Q     Q.    E E E Q     Q.    E E E Q     Q.    E E E Q   

|-----------------|-----------------|-----------------|-----------------|
|-----------5-7---|-----------5-7---|-----------------|-----------------|
|-3-----6/7-------|-3-----6/7-------|-----------5-7---|-----------5-7---|
|-----------------|-----------------|-3-----6/7-------|-3-----6/7-------|
  Q.    E E E Q     Q.    E E E Q     Q.    E E E Q     Q.    E E E Q   

|-----------------|-----------------|-----------------|-----------------|
|-------4-5-8-5---|-7-----7/9\7-----|---------2-5-----|-3-------3-5-----|
|-6---------------|-------------8---|-5-----5-----3---|-------5-----5---|
|-----------------|-----------------|-----------------|-----------------|
  Q.    E E E Q     Q.    E E E Q     Q.    E E E Q     Q.    E E E Q   

|-----------------|---------2-5-----|-----------7-9---|-----------7-9---|
|-------4/5-8-----|-3-----3-----3---|-5-----8/9-------|-5-----8/9-------|
|-6-----------6---|-----------------|-----------------|-----------------|
|-----------------|-----------------|-----------------|-----------------|
  Q.    E E E Q     Q.    E E E Q     Q.    E E E Q     Q.    E E E Q   

|-----------7-9---|-----------7-9---|-----------------|-----------------|
|-5-----8/9-------|-5-----8/9-------|-----------------|-----------------|
|-----------------|-----------------|-----------5-7---|-----------5-7---|
|-----------------|-----------------|-3-----6/7-------|-3-----6/7-------|
  Q.    E E E Q     Q.    E E E Q     Q.    E E E Q     Q.    E E E Q   

|-----------------|-----------------|
|-----------------|-----------------|
|-----------5-7---|-----------5-7---|
|-3-----6/7-------|-3-----6/7-------|
  Q.    E E E Q     Q.    E E E Q

Outro

|-----------------|-----------------|-----------------|-----------------|
|-----------------|-----------------|-----------------|-----------------|
|-6---------------|-----------------|-5\--------------|-1/--------------|
|-----------------|-5/--------------|-----------------|-----------------|
  W                 W                 W                 W

|-----------------|-----------------|-----------------|-----------------|
|-----------------|-----------------|-----------------|-----------------|
|-6---------------|-----------------|-5-----------5---|-1-----1-----1/--|
|-----------------|-5---------------|-----------------|-----------------|
  W                 W                 Q.          Q     Q.    Q.    Q

|-----------------|-----------------|-----------------|-----------------|
|-----------------|-----------------|-----------------|-----------------|
|-6---------------|-----------------|/5---------------|-1-----1-----1/--|
|-----------------|-5---------------|-----------------|-----------------|
  W                 W                 W                 Q.    Q.    Q

|-----------------|-----------------|-----------------|-----------------|
|-----------------|-----------------|-----------------|-----------------|
|-6---------------|-----------------|-5---------------|-1-----------1---|
|-----------------|-5---------------|-----------------|-----------------|
  W                 W                 W                 H.          Q

|-----------------|-----------------|-----------------|-----------------|
|-----------------|-----------------|-----------------|-----------------|
|-6---6---6---6---|-----------------|-5---5---5---5---|-1-----1-----1---|
|-----------------|-5---5---5---5---|-----------------|-----------------|
  Q   Q   Q   Q     Q   Q   Q   Q     Q   Q   Q   Q     Q.    Q.    Q

|-----------------|-----------------|-----------------|-----------------|
|-----------------|-----------------|-----------------|-----------------|
|-6---6---6---6---|-----------------|-5---5---5---5---|-----------------|
|-----------------|-5---5---5---5---|-----------------|-6---6---6---6---|
  Q   Q   Q   Q     Q   Q   Q   Q     Q   Q   Q   Q     Q   Q   Q   Q

|-----------------|-----------------|-----------------|-----------------|
|-----------------|-----------------|-----------------|-----------------|
|-6---6---6---6---|-----------------|-5---5---5---5---|-----------------|
|-----------------|-5---5---5---5---|-----------------|-6---6---6---6---|
  Q   Q   Q   Q     Q   Q   Q   Q     Q   Q   Q   Q     Q   Q   Q   Q


|-----------------|-----------------|-----------------|-----------------|
|-----------------|-----------------|-----------------|-----------------|
|-6---6---6---6---|-----------------|-5---5---5---5---|-----------------|
|-----------------|-5---6---8---6---|-----------------|-6---6---6---6---|
  Q   Q   Q   Q     Q   Q   Q   Q     Q   Q   Q   Q     Q   Q   Q   Q

|-----------------|-----------------|-----------------|-----------------|
|-----------------|-----------------|-----------------|-----------------|
|-6---6---6---6---|-----------------|-5---5---5---5---|-----------------|
|-----------------|-5---5---5---5---|-----------------|-6---6---6---6---|
  Q   Q   Q   Q     Q   Q   Q   Q     Q   Q   Q   Q     Q   Q   Q   Q


|-----------------|-----------------|-----------------|-----------------|
|-----------------|-----------------|-----------------|-----------------|
|-6---6---6---6---|-----------------|-5---5---5---5---|-----------------|
|-----------------|-5---5---5---5---|-----------------|-6---6---6---6---|
  Q   Q   Q   Q     Q   Q   Q   Q     Q   Q   Q   Q     Q   Q   Q   Q

|-----15----15----|-15--------------|-15-----------15-|-15---15--15-15--|
|--------13----13-|----13------13---|----13-----13-13-|-13---13--13-13--|
|-6---------------|---------13------|-------13-----13-|-13---13--13-13--|
|-----------------|-----------------|-----------------|-----------------|
  H   S  S  S S Q   E  Q.   E  Q.     E  E  Q   E  Q.   Q.   Q   E  Q

|-17-17-17-17-17--|-17-17-17-17-17--|-17-17-17-17-17-17-17-17-|-17-17-17-17-17--|
|-15-15-15-15-15--|-15-15-15-15-15--|-15-15-15-15-15-15-15-15-|-15-15-15-15-15--|
|-15-15-15-15-15--|-15-15-15-15-15--|-15-15-15-15-15-15-15-15-|-15-15-15-15-15--|
|-----------------|-----------------|-------------------------|-----------------|
  E  E  E  E  H     E  E  E  E  H     E  E  E  E  E  E  E  E    E  E  E  E  H

|-12-12-12-12-12-12-12-12-|-12-12-13--14--15--|-15--16--14--13--|-12--10--12------|
|-12-12-12-12-12-12-12-12-|-12-12-13--14--15--|-15--16--14--13--|-12--10--12------|
|-10-10-10-10-10-10-10-10-|-10-10-11--12--13--|-13--14--12--11--|-10--8---10------|
|-------------------------|-------------------|-----------------|-----------------|
  E  E  E  E  E  E  E  E    E  E  Q   Q   Q     Q   Q   Q   Q     Q   Q   H

|-12-12-12-12-----|-----------------||
|-12-12-12-12-----|-----------------||
|-10-10-10-10-----|-10\-------------||
|-----------------|-----------------||
  E  E  E  E  H     Q  Q   H


Key to rhythm notations:

W - Whole Note/Semi-Brieve
H - Half Note/Minim
Q - Quarter Note/Crotchet       Q. - Dotted Quarter Note
E - Eight Note/Quaver           E. - Dotted Eight Note
S - Sixteenth Note/Semi-Quaver  S. - Dotted Sixteenth Note
Suggest correction
Creating personal tab
Creating personal tab
You can edit any tab online and save it as your Personal.

You can edit, replace or remove any tab part or add personal notes – all changes will be seen only by you.

Personal tabs can be accessed anytime from any device, even offline.
Learn more »
Give kudos to tab author, rate the tab!
1 2 3 4 5
comments
print report bad tab
1 comment total.
0 reply
leograssi90 501 Aug 09, 2015 07:33 AM

This is what I came up with for the verses. Just minor differences, but I'm quite sure of the last pattern played an octave higher...

|-----------------|-----------------|-----------------|-----------------|
|-----------------|-----------------|-----------------|-----------------|
|-----------5-7---|-----------5-7---|-----------5-7---|-----------5-7---|
|-3-----6/7-------|-3-----6/7-------|-3-----6/7-------|-3-----6/7-------|
Q. E E E Q Q. E E E Q Q. E E E Q Q. E E E Q

|-----------------|-----------------|-----------------|-----------------|
|-----------5-7---|-----------5-7---|-----------------|-----------------|
|-3-----6/7-------|-3-----6/7-------|-----------5-7---|-----------5-7---|
|-----------------|-----------------|-3-----6/7-------|-3-----6/7-------|
Q. E E E Q Q. E E E Q Q. E E E Q Q. E E E Q

|-----------------|-----------------|-----------------|-----------------|
|-------4/5-8-----|-7-----7h8p7-----|-------3/5-3-----|-3-----3/5\3-----|
|-6-----------6---|-------------8---|-5-----------3---|-------------5---|
|-----------------|-----------------|-----------------|-----------------|
Q. E E E Q Q. E E E Q Q. E E E Q Q. E E E Q

|-----------------|---------------|------------------|------------------|
|-------4/5-8-6---|-------7-10----|------------12-14-|------------12-14-|
|-6---------------|-8---------8---|-10----13/14------|-10----13/14------|
|-----------------|---------------|------------------|------------------|
Q. E E E Q Q. E E E Q Q. E E E Q Q. E E E Q

|------------------|------------------|
|------------12-14-|------------12-14-|
|-10----13/14------|-10----13/14------|
|------------------|------------------|
Q. E E E Q Q. E E E Q

I also think that the outro has some slides:

||------------------|-----------------|-----------------|-------------||
||o-----------------|-----------------|-----------------|------------o||
||o-/6--------------|-----------------|-/5--------------|------------o||
||------------------|-5---------------|-----------------|-6-----------||
W W W W

Tell me what you think about it. Anyway, thanks for your great contributions! This is a really tough one, especially for verses and bridge.

guest
You may want to rate the tab now too:
select rating
Wanna post a correction for this tab? Suggest correction