Oops, an error
Loading. Please wait.

Bodhisattva Tab

version 1
version 1

Whole song

Interactive

24,223 views 24 this week
no commentswrite comment
1 2 3 4 5
accurate
x 7
add to favorites
launch autoscroll
font size
0
reset
how to read this tab
guitar tuner
Autoscroll
slow
fast
+/-
esc
set tempo
stop
Help us to improve Ultimate-Guitar.com Take our survey!
×
This is my TAB to the first song on Steely Dan's "Countdown to Ecstacy" album,
I don't have the solos included right now, but I may come back in and give parts of the the
(I haven't gotten all of either solo figured out yet). It's a really easy song, though, 
(solos aside, of course. Those can be tricky) so enjoy!

All guitars tuned to Standard Tuning (EADGBe)


Intro:
e|----------|
B|----------|
G|----------|     (Repeat one time)
D|-5-3------|
A|-5-3------|
E|-3-1------|

   G F


Riff A:
e|-------------------------------|
B|-------------------------------|
G|-4h5-5b7--5b7r5-4-5-4----------|
D|----------------------5-3h5-3--|
A|-------------------------------|
E|-------------------------------|

e|---------------------5--------------------|
B|-----------5-6-5-6-8---8p6----6/8-6-5-----|
G|-4h5-7-5-7------------------7----------7--|
D|------------------------------------------|
A|------------------------------------------|
E|------------------------------------------|


e|-------------|-----------|----|
B|-------------|-----------|-10-|
G|-------------|-----------|-10-|
D|-------------|-----------|-9--|
A|----5--------|----5h7----|-10-|
E|-/7---7-3----|-/7-----3--|----|


Verse:
e|-----------|------------|-----------|
B|-----------|------------|-----------|
G|-----------|------------|-----------|
D|-----------|--------5h7-|-----------|
A|-------5h7-|-3--/7------|-------5h7-|
E|-3--/7-----|------------|-3--/7-----|
    G7 (4x)     C7 (2x)      G7 (2x)


e|---------|---------|----------|------------|---------|----------|
B|---------|---------|----------|------------|---------|----------|
G|---------|---------|----------|------------|---------|----------|
D|---5-8---|---3-7---|---7-10---|----9-12----|---5-8---|---7-10---|
A|-6-----6-|-5-----5-|-8------8-|-10------10-|-6-----6-|8-------8-|
E|---------|---------|----------|------------|---------|----------|
     Eb        Dm         F           G          Eb         F


That's it for now. There's really nothing else to it, though, until the second guitar
(where there's a key change to I think G minor).
Suggest correction
comments
print report bad tab
guest
You may want to rate the tab now too:
select rating
Please do not post tabs as comments. Select "correction" instead!