Oops, an error
Loading. Please wait.

Change Of The Guard Bass Tab

1,316 views 7 this week
no commentswrite comment
1 2 3 4 5
please rate
add to favorites
launch autoscroll
font size
0
reset
guitar tuner
Tab Pro tools
  • play this tab
  • loop segment
  • change instrument
  • show fretboard
  • metronome
×
Best way to learn
"Change Of The Guard"
Autoscroll
slow
fast
+/-
esc
set tempo
stop
Contributor
Change of the Guard
Steely Dan
Bass Tab
Bassist: Walter Becker

120BPM, 4/4

Intro

|---------|----------|---6---6---6---6-|---6---6----------|
|---------|----------|-----------------|------------------|
|---------|----------|-4---4---4---4---|-4---4---4-4------|
|---------|--------4-|-----------------|-------------6-4--|

|---6---6---6---6-|---6---6---------|---6---6---6---6-|---6---6---------|
|-----------------|-----------------|-----------------|-----------------|
|-4---4---4---4---|-4---4---4-4-----|-4---4---4---4---|-4---4-----------|
|-----------------|-------------6-4-|-----------------|---------1-4-4-6-|

Verse

|--------------|--------------|--------------|--------------|
|--------------|--------------|--------------|--------------|
|-4----4-4-----|-4----4-4-----|-4------------|-4------------|
|----------6-4-|----------6-4-|------4-4-6-4-|-----6-4-6--4-|

|--------------|---------------|--------------|--------------|
|--------------|---------------|--------------|--------------|
|-4----4-4-----|-4---------4---|-4----4-4-----|-4----4-4---4-|
|----------6-4-|-----1-4-6---4-|----------6-4-|----------6---|

Pre-chorus

|--------------|-------------|------------|------|
|--------------|-------------|----8--6----|------|
|---8------6---|-8--8----8---|------------|------|
|-----x8-8---8-|------x8-----|-6----------|-2----|

|-----------|--------------|----6------6--|----6------6---|
|-----------|--------------|--------------|---------------|
|-4---------|--------------|-4-----4-4----|-4-----4-4---4-|
|-----6-----|-2---4--4-6-4-|--------------|---------------|

Chorus

|-----3-3-----3-3-|-----3-3-----3---|-----------------|-----------------|
|-----------------|-----------------|-----4-4-----4-4-|-----4-4-----4---|
|-1-1-----1-1-----|-1-1-----1-1---1-|-----------------|-----------------|
|-----------------|-----------------|-2-2-----2-2-----|-2-2-----2-2---2-|

|-----3-3-----3-3-|-----3-3-----3---|-----------------|------------------|
|-----------------|-----------------|-----x-4-----x-4-|-----x-4-4-4------|
|-1-1-----1-1-----|-1-1-----1-1---1-|-----------------|----------4-4-----|
|-----------------|-----------------|-2-2-----2-2-----|-2-2----------4-6-|

|---------------|---------------|-----6------6-|------6---------|
|----6-6----6-6-|----6-6--------|--------------|----------------|
|---------------|---------------|-4-----4-4----|-4-4----4-4-----|
|-4------4------|-4------4--4-6-|--------------|------------6-4-|

Verse

|--------------|---------------|--------------|--------------|
|--------------|---------------|--------------|--------------|
|-4----4-4-----|-4---------4---|-4----4-4-----|-4------------|
|----------6-4-|-----1-4-6---6-|----------6-4-|-----1-4-6--4-|

|--------------|--------------|---------------|--------------|
|--------------|--------------|---------------|--------------|
|-4----4-4-----|-4----4-4-----|-4---------4---|-4----4-4---4-|
|----------6-4-|----------6-4-|-----1-4-6---6-|----------6---|

Pre-chorus

|----10------10--|----10------10--|------------|------|
|----------------|----------------|----8--6----|------|
|-8------8-8-----|-8------8-8-----|------------|------|
|----------------|----------------|-6----------|-2----|

|-----------|-------------|-----6------6--|-----6----------|
|-----------|-------------|---------------|----------------|
|-4---------|-------------|-4-4----4-4----|-4-4---x4-----4-|
|-----6-----|-2---4---4-6-|---------------|----------4-6---|

Chorus

||------3-3-----3-3-|-----3-3-----3---|-----------------|-------------------||
||o-----------------|-----------------|-----4-4-----4-4-|-----4-4-----4----o||
||o-1-1-----1-1-----|-1-1-----1-1---1-|-----------------|---------------4--o||
||------------------|-----------------|-2-2-----2-2-----|-2-2-----2-2-------||

|-----------------|----------------|
|-----6-6-----6-6-|-----6-6--------|
|-----------------|----------------|
|-4-4-----4-4-----|-4-4-----2-4--6-|

Solo

||-------------|------------|------------|-----------------||
||o----------4-|------4-3---|------------|----------------o||
||o--------4---|----------6-|------6-4---|--4-6-----------o||
||-------6-----|------------|----------7-|------4--2-4-6---||

|------------|-------------|------------|----------|
|----------4-|-----4-3-----|------------|----------|
|--------4---|---------4-6-|------6-4---|--6-4-----|
|------6-----|-------------|----------7-|------4---|

|---------------|----------------|----6------6--|----6------6--|
|-----6------6--|-----6------6---|--------------|--------------|
|---------------|----------------|-4-----4-4----|-4-----4-4----|
|-4-4----4-4----|-4-4---x4-4---4-|------4-------|------4-------|

Pre-chorus

|----10------10--|-----10-----10--|------------|------|
|----------------|----------------|----8--6----|------|
|-8------8-8-----|-8-8-----8------|------------|------|
|----------------|----------------|-6----------|-2----|

|-------------|-------------|----6------6---|----6------6--|
|-------------|-------------|---------------|--------------|
|-4-----1-----|-----1-------|-4-----4-4-----|-4-----4-4----|
|---2-4-------|-2-4---4-----|-------------4-|--------------|

Chorus/Ending

|-----3-3-----3-3-|-----3-3-----3---|-----------------|-----------------|
|-----------------|-----------------|-----4-4-----4-4-|-----4-4---4---6-|
|-1-1-----1-1-----|-1-1-----1-1---1-|-----------------|-----------------|
|-----------------|-----------------|-2-2-----2-2-----|-2-2-----2---4---|

|-----3-3-----3-3-|-----3-3-----3---|-----------------|------------------|
|-----------------|-----------------|-----4-4-----4-4-|-----4-4-4-4------|
|-1-1-----1-1-----|-1-1-----1-1---1-|-----------------|----------4-4-----|
|-----------------|-----------------|-2-2-----2-2-----|-2-2----------2-4-|

|-----3-3-----3-3-|-----3-3---------|---------------|---------------|
|-----------------|---------------1-|------4------4-|------4--------|
|-1-1-----1-1-----|-1-1-----1-1-4---|---------------|---------------|
|-----------------|-----------------|-2-2----2-2----|-2-2----2-2--4-|

||------3-3-----3-3-|-----3-3-----3-3-|-----------------|-------------------||
||o-----------------|-----------------|-----4-4-----4-4-|-----4-4-----4----o||
||o-1-1-----1-1-----|-1-1-----1-1-----|-----------------|---------------4--o||
||------------------|-----------------|-2-2-----2-2-----|-2-2-----2-2-------|| til fade
comments
We did not receive enough feedback on this tab! Please rate:
print report bad tab
1 2 3 4 5
I want to post or [tab]
guest
You may want to rate the tab now too:
select rating
Please do not post tabs as comments. Select "correction" instead!