Oops, an error
Loading. Please wait.

Do It Again Tab

version 1
version 1

Solo

Whole song

Interactive

27,390 views 57 this week
4 commentsread comments
1 2 3 4 5
x 14
add to favorites
launch autoscroll
font size
0
reset
how to read this tab
guitar tuner
Autoscroll
slow
fast
+/-
esc
set tempo
stop
Help us to improve Ultimate-Guitar.com Take our survey!
×
Author
Difficulty
intermediate
Tabbed by: Joshua Garcia (joshuag523@aol.com)

Tabs for the song: Do It Again by Steely Dan
Please rate and let me know if you have any corrections. Thank you.

Couldn't find a proper solo for this tab anywhere so I decided to tab it myself. I would have done
the whole tab but it wouldn't have come out accurate since I don't own an acoustic. I hope this
helps, I worked really hard on it and I just know it's right.


Tuning: Standard (E A D G B E)


E||-------------------------------------------------------------------|
B||-------------------------------------------------------------------|
G||-------------------------------------------------------------------|
D||--5---5-5---5-----3-------5---3-----5---3----5------3----5----3p0--|
A||--------------5-----3-------5---3-----5----------5----3-----5------|
E||-------------------------------------------------------------------|


E||----------------------------------------------------------------3--|
B||-------------------------------------------------------1---3/5-----|
G||-------------------------------------------2--p0-----2-------------|
D||------3h5-----5----3h5-5p3----------3--------------3---------------|
A||--4h5-------5--------------5--3h4h5-----5--------------------------|
E||-------------------------------------------------------------------|


E||------3--6---5------3----------------------------------------------|
B||--3h5----------6------3---6---5-----3------------------------------|
G||--------------------------------5-----3---5---0-3--2---------2--5--|
D||-----------------------------------------------------3-----3-------|
A||--------------------------------------------------------5----------|
E||-------------------------------------------------------------------|


E||--------------------------------------------------------------3/5--|
B||----------------------------------------------------------3-6------|
G||-3h5p3-2---2-5p2-3h5p3-2---2-5p2--3p2-3p0-----3-6-3-5-4-3----------|
D||--------3-5-------------3-5--------------3h4h5---------------------|
A||-------------------------------------------------------------------|
E||-------------------------------------------------------------------|


E||--3--5-------3-----------------------------------------------------|
B||---------6-----3---6-5------3--------------------------------------|
G||-----------------------5--------5---5p3---------3------------------|
D||----------------------------------------5---3/5-----5p3---------3--|
A||--------------------------------------------------------3---3/5----|
E||-------------------------------------------------------------------|


E||-------------------------------------------------------------------|
B||------------------------------------------------8--8---8--8---8----|
G||------------------------------------3--5----5h6----5h6----5h6------|
D||----------------------------3--3/5---------------------------------|
A||--5p3-------------1-3--3/5-----------------------------------------|
E||------6---3/1--3---------------------------------------------------|


E||-------------------------------------------------------------------|
B||--8---8--8---8-----------------------------------------------------|
G||--5h6----5h6---6-5-3-------3--------------------------------5---7--|
D||---------------------5-3/5---5p4p3---------3h5---3/5----8----------|
A||-----------------------------------5-3h4h5-------------------------|
E||-------------------------------------------------------------------|


E||-------------------------------------------------------------------|
B||----6--8---6/8--11-----------11-------11--11/13----13-------13-----|
G||--7-----------------10-10b12----10b12-----10/12b14----12b14--------|
D||-------------------------------------------------------------------|
A||-------------------------------------------------------------------|
E||-------------------------------------------------------------------|


E||-------------------------------------------------------------------|
B||-------11-------11--11/13----13-------13---------11-------11-------|
G||-10b12----10b12-----10/12b14----12b14------10b12----10b12----10b12-|
D||-------------------------------------------------------------------|
A||-------------------------------------------------------------------|
E||-------------------------------------------------------------------|


E||-------------------------------------------------------------------|
B||-11-------13-------13-13----------11-------11--10--10--8---8-6--8--|
G||----12b14----12b14----12b14-10b12----10b12-----9h10----------------|
D||-------------------------------------------------------------------|
A||-------------------------------------------------------------------|
E||-------------------------------------------------------------------|


E||-------------------------------------------------------------------|
B||-------------------------------------------------------------------|
G||--6---6-5--3---------3-------------------3--3-5-3---3-5-3----3-----|
D||-------------5-3h4h5---5--3---------3h5-----------5-------5--------|
A||----------------------------5---3h5--------------------------------|
E||-------------------------------------------------------------------|


E||-------------------------------------------------------------------|
B||-------------------------------------------------------------------|
G||--5-6-5-3-6-5-3-----3-6-5-3-----3-5-3-6-3-5-4-3--------------------|
D||----------------4h5---------4h5------------------5---3h5---3-------|
A||-------------------------------------------------------------5-----|
E||-------------------------------------------------------------------|


E||------------------------------------------3-----6--3-5------3------|
B||------------------------------3-----6---3-----6---------6-----3----|
G||------------------3-----5---3-----3--------------------------------|
D||------3-----5---3-----5--------------------------------------------|
A||--3h5-----5--------------------------------------------------------|
E||-------------------------------------------------------------------|


E||-------------------------------------------------------------------|
B||--6-5---3----------------------------------------------------------|
G||------5---3-5-3\2-------2-5----3h5p3-2-----------------------------|
D||------------------3---3-------------------3------------------------|
A||--------------------5-------------------------5--1-----------------|
E||------------------------------------------------------3------------|




Tablature Legend
----------------
 h   hammer-on
 p   pull-off
 b   bend
 pb  pre-bend
 r   release bend
 ~   hold / vibrato
 .   palm mute
 /   slide up
 \   slide down
 *   pinch harmonic
 '   natural harmonic
 x   mute note
 T   tap
Suggest correction
comments
print report bad tab
4 comments total. Showing first comments.
0 reply
CerpinTaxt 151 Apr 08, 2010 07:24 PM

Brilliant! Thanks for tabbing this one out.

0 reply
TheTones 20 Aug 31, 2010 06:23 AM

Absoutly Poifect ^_^

0 reply
Leo.Salazar 10 Dec 24, 2010 11:25 AM

Great tabs!!! Looks perfect.

Leo

guest
You may want to rate the tab now too:
select rating
Wanna post a correction for this tab? Suggest correction