Oops, an error
Loading. Please wait.

Dr Wu Tab

1,880 views 1 this week
no commentswrite comment
1 2 3 4 5
please rate
add to favorites
launch autoscroll
font size
0
reset
how to read this tab
guitar tuner
Tab Pro tools
  • play this tab
  • loop segment
  • change instrument
  • show fretboard
  • metronome
×
Best way to learn
"Dr Wu"
Autoscroll
slow
fast
+/-
esc
set tempo
stop
Contributor
Difficulty
intermediate
Title: Dr Wu
Artist: Steely Dan
Sax Solo arranged for guitar by MotMandre

E|-------------------------------|-----------------------------------|
B|-------12----12----12----12----|-12----13----12--------------------|
G|-------------------------------|-------------------14----12--------|
D|-------------------------------|------------------------------14---|
A|-------------------------------|-----------------------------------|
E|-------------------------------|-----------------------------------|


E|----------------------------------|---------------------------|
B|------13----13----13------13------|-15--13------------12------|
G|----------------------------------|---------14----------------|
D|----------------------------------|---------------------------|
A|----------------------------------|---------------------------|
E|----------------------------------|---------------------------|


E|----------------------------------|----------------------------|
B|----------------------------------|-12---13--------------------|
G|-------------------12---14--12----|----------14--------12------|
D|-----12--14--12-------------------|----------------------------|
A|----------------------------------|----------------------------|
E|----------------------------------|----------------------------|


E|----------------------------------|----------------------------12-|
B|----------------------------------|-12---15---15---15-------15----|
G|-------------------12---14--12----|-------------------------------|
D|-----12--14--12-------------------|-------------------------------|
A|----------------------------------|-------------------------------|
E|----------------------------------|-------------------------------|


E|-14---15--------------12----|-14-----15---------------12----|
B|------------15--------------|---------------15--------------|
G|----------------------------|-------------------------------|
D|----------------------------|-------------------------------|
A|----------------------------|-------------------------------|
E|----------------------------|-------------------------------|


E|-15----12----------14--------------------------|---------------------------------------|
B|----------13-------------15----------15---12---|-13------12------10--------------------|
G|-------------14-------------16-----------------|------14------12----11-12-11-9---------|
D|-------------------------------17--------------|---------------------------------------|
A|-----------------------------------------------|---------------------------------------|
E|-----------------------------------------------|---------------------------------------|


E|--------------------|-15--12--------------------------------------|
B|--------------12-15-|--------16-15-12-----------------------------|
G|--------11-12-------|-----------------12----14-12--------------12-|
D|--------------------|--------------------14-------16-14-14--16----|
A|--------------------|---------------------------------------------|
E|--------------------|---------------------------------------------|



E|-----------15--------15--------|-15--------15---15---15---12-|
B|----------------15--------15---|------15---------------------|
G|-----14------------------------|-----------------------------|
D|-------------------------------|-----------------------------|
A|-------------------------------|-----------------------------|
E|-------------------------------|-----------------------------|


E|-15--14-13-12-----------------------------|---------------------------------|
B|--------------15-12-----------------------|---------------------------------|
G|--------------------12----14----------12--|-----9-------11------7-------9---|
D|-----------------------14-----16----------|---------------------------------|
A|------------------------------------------|---------------------------------|
E|------------------------------------------|---------------------------------|

E|-------------------------------|-------------------------------------|--------|
B|-------------------------------|-------------------------------------|--------|
G|-------------------------------|-------------------------------------|--------|
D|-----9-------9-----7-----------|-7---9---7---------------------------|--------|
A|-------------------------10----|-------------10--7-----7-----7-------|--7-----|
E|-------------------------------|-------------------------------------|--------|

comments
We did not receive enough feedback on this tab! Please rate:
print report bad tab
1 2 3 4 5
I want to post or [tab]
guest
You may want to rate the tab now too:
select rating
Please do not post tabs as comments. Select "correction" instead!