Oops, an error
Loading. Please wait.

Gaslighting Abbie bass

407 views 9 this week
no commentswrite comment
1 2 3 4 5
3 more votes to show rating
add to favorites
×
Save as Personal and add changes to this tab that will be seen only by you. Learn more ›
×
You can save this tab as Personal to edit and correct it or add notes. All changes will be seen only by you. Learn more »
launch autoscroll
font size
0
reset
guitar tuner
edit
Autoscroll
slow
fast
+/-
esc
set tempo
stop
Author
                                 Gaslighting Abbie
                                     Steely Dan

Bass                                                              Donald Fagen
                                                                 Walter Becker

As played by Tom Barney

Intro

G|-----------------|-----------------|-----------------|-----------------|
D|-------6---------|-----------------|-------6---------|-----------------|
A|----7----5-------|-----------------|----7----5-5-4---|-----------------|
E|-----------------|-----------------|-----------------|-----------------|
B|-5---------------|---------------4-|-5---------------|-------------7-6-|
   E. E. E E E Q     H.          E E   E. E. E S S E Q   H.        E S S

G|-----------------|-----------------|-----------------|-----------------------|
D|-------6---------|-----------------|-------6---------|-----------------------|
A|----7----5-------|-----------------|----7----5-5-4---|-------0-1-2-----------|
E|-----------------|-----------------|-----------------|-2-5-3-------3/--------|
B|-5---------------|---------------4-|-5---------------|-----------------2-3-4-|
   E. E. E E E Q     H.          E E   E. E. E S S E Q   E.E S S S S Q   S S S

G|-----------------|-----------------|-----------------|-----------------------|
D|-----------------|-----------------|-----------------|-----------------------|
A|----7----5-------|-7-----6-5-----5-|----7----5-------|-------0-1-2-----------|
E|-------4/--------|-----------------|-------4/--------|-2-5-3-------3/--------|
B|-5---------------|----5-------3----|-5---------------|-----------------2-3-4-|
   E. E. E E E Q     E. E. E E. E. E   E. E. E E E Q     E.E S S S S Q   S S S

G|-----------------|-----------------|-----------------|---------------------|
D|-----------------|-----------------|-------6---------|---------------------|
A|----7----5-------|-7-----6-5-----5-|-7-7-----7-5-----|----7--6---2-5-4-0-2-|
E|-------4/--------|-----------------|-----------------|---------------------|
B|-5---------------|----5-------3----|-----------------|-5-------------------|
   E. E. E E E Q     E. E. E E. E. E   S S S E.E E E Q   E. E. E E S S S E S

Verse 1

G|-----------------|-----------------|-----------------|-----------------------|
D|-----------------|-----------------|-----------------|-----------------------|
A|----7----5-------|-7-----6-5-----5-|----7----5-------|-------0-1-2-----------|
E|-------4/--------|-----------------|-------4/--------|-2-5-3-------3/--------|
B|-5---------------|----5-------3----|-5---------------|-----------------2-3-4-|
   E. E. E E E Q     E. E. E E. E. E   E. E. E E E Q     E.E S S S S Q   S S S

G|-----------------|-----------------|---------------------|---------------------|
D|-----------------|-----------------|-------6-------------|---------------------|
A|----7----5-------|-7-----6-5-----5-|-7-7-----x-7-7-x-----|----7--6---2-5-4-0-2-|
E|-------4/--------|-----------------|---------------------|---------------------|
B|-5---------------|----5-------3----|---------------------|-5-------------------|
   E. E. E E E Q     E. E. E E. E. E   S S S E S S S E E Q   E. E. E E S S S E S

G|-----------------|-----------------|-----------------|-----------------------|
D|-----------------|-----------------|-----------------|-----------------------|
A|----7----5-------|-7-----6-5-----5-|----7----5-------|-------0-1-2-----------|
E|-------4/--------|-----------------|-------4/--------|-2-5-3-------3/--------|
B|-5---------------|----5-------3----|-5---------------|-----------------2-3-4-|
   E. E. E E E Q     E. E. E E. E. E   E. E. E E E Q     E.E S S S S Q   S S S

G|-----------------|-----------------|-------------------|---------------------|
D|-----------------|-----------------|-------6-----------|---------------------|
A|----7----5-------|-7-----6-5-----5-|-7-7-----x-7-x-----|-7---6---5---5-6-7---|
E|-------4/--------|-----------------|-------------------|-----------7---------|
B|-5---------------|----5-------3----|-------------------|---5---5-----------5-|
   E. E. E E E Q     E. E. E E. E. E   S S S E S E E E Q   E.S E.S S S S S S E.

G|-----------------|---------------------|-----------------|----------------------|
D|-----------------|---------------------|-----------------|--------4-3-2---0-2---|
A|----7----5-------|----7----5---5---5-7-|----7----5-------|-2--2-2---------------|
E|-------4/--------|-------4/------7-----|-------4/--------|--------------0-------|
B|-5---------------|-5-------------------|-5---------------|----------------------|
   E. E. E E E Q     E. E. E E S E S S S   E. E. E E E Q     E. E S S S E E S S E

G|-----------------|-1--4------------|
D|-----------------|-----------------|
A|----7----5-------|-------0---------|
E|-------4/--------|-----------------|
B|-5---------------|-----------------|
   E. E. E E E Q     E. E. E H

Chorus 1

G|-----------------|-----------------|-----------------|--------------------------|
D|-----------------|-----------------|-1--1------------|--------------3-----3-----|
A|---------3--3----|-3--3----1--1----|---------4--4----|-2--2---------------------|
E|-3--3------------|-----------------|-----------------|--------1-1-1---1-1---1-1-|
B|-----------------|-----------------|-----------------|--------------------------|
   E. E. E E. E. E   E. E. E E. E. E   E. E. E E. E. E   E. E.S S S S S S S S S S

                     2/4       4/4
G|-----------------|---------|-----------------|-----------------|
D|---3-------------|---------|-----------------|-----------------|
A|---------5--5----|-5--5----|-4--4----4--4----|-4--4----4--4----|
E|-1---------------|---------|-----------------|-----------------|
B|-----------------|---------|-----------------|-----------------|
   S E.Q   E. E. E   E. E. E   E. E. E E. E. E   E. E. E E. E. E 

Verse 2

G|-----------------|-----------------|-----------------|-----------------------|
D|-----------------|-----------------|-----------------|-----------------------|
A|----7----5-------|-7-----6-5-----5-|----7----5-------|-------0-1-2-----------|
E|-------4/--------|-----------------|-------4/--------|-2-5-3-------3/--------|
B|-5---------------|----5-------3----|-5---------------|-----------------2-3-4-|
   E. E. E E E Q     E. E. E E. E. E   E. E. E E E Q     E.E S S S S Q   S S S

G|-----------------|-----------------|---------------------|---------------------|
D|-----------------|-----------------|-------6-------------|---------------------|
A|----7----5-------|-7-----6-5-----5-|-7-7-----x-7-7-x-----|----7--6---2-5-4-0-2-|
E|-------4/--------|-----------------|---------------------|---------------------|
B|-5---------------|----5-------3----|---------------------|-5-------------------|
   E. E. E E E Q     E. E. E E. E. E   S S S E S S S E E Q   E. E. E E S S S E S

G|-----------------|-----------------|-----------------|-----------------------|
D|-----------------|-----------------|-----------------|-----------------------|
A|----7----5-------|-7-----6-5-----5-|----7----5-------|-------0-1-2-----------|
E|-------4/--------|-----------------|-------4/--------|-2-5-3-------3/--------|
B|-5---------------|----5-------3----|-5---------------|-----------------2-3-4-|
   E. E. E E E Q     E. E. E E. E. E   E. E. E E E Q     E.E S S S S Q   S S S

G|-----------------|-----------------|-------------------|---------------------|
D|-----------------|-----------------|-------6-----------|---------------------|
A|----7----5-------|-7-----6-5-----5-|-7-7-----x-7-x-----|-7---6---5---5-6-7---|
E|-------4/--------|-----------------|-------------------|-----------7---------|
B|-5---------------|----5-------3----|-------------------|---5---5-----------5-|
   E. E. E E E Q     E. E. E E. E. E   S S S E S E E E Q   E.S E.S S S S S S E.

G|-----------------|---------------------|-----------------|----------------------|
D|-----------------|---------------------|-----------------|--------4-3-2---0-2---|
A|----7----5-------|----7----5---5---5-7-|-5--7----5-------|-5--5-----------------|
E|-------4/--------|-------4/------7-----|-------7/--------|--------------0-------|
B|-5---------------|-5-------------------|-----------------|----------------------|
   E. E. E E E Q     E. E. E E S E S S S   E. E. E E E Q     E. E S S S E E S S E

G|-----------------|-1--4------------|
D|-----------------|-----------------|
A|----7----5-------|-------0---------|
E|-------4/--------|-----------------|
B|-5---------------|-----------------|
   E. E. E E E Q     E. E. E H

Chorus 2

G|-----------------|-----------------|-----------------|--------------------------|
D|-----------------|-----------------|-1--1------------|--------------3-----3-----|
A|---------3--3----|-3--3----1--1----|---------4--4----|-2--2---------------------|
E|-3--3------------|-----------------|-----------------|--------1-1-1---1-1---1-1-|
B|-----------------|-----------------|-----------------|--------------------------|
   E. E. E E. E. E   E. E. E E. E. E   E. E. E E. E. E   E. E.S S S S S S S S S S

                     2/4       4/4
G|-----------------|---------|-----------------|-----------------|
D|---3-------------|---------|-----------------|-----------------|
A|---------5--5----|-5--5----|-4--4----4--4----|-4--4----4--4----|
E|-1---------------|---------|-----------------|-----------------|
B|-----------------|---------|-----------------|-----------------|
   S E.Q   E. E. E   E. E. E   E. E. E E. E. E   E. E. E E. E. E 

Bridge

G|------------------|------------------|-------3-----------|---------3-4-5------------|
D|----------6-------|-6------6---------|----4--------------|-----4-1-------6--6-------|
A|-------6----------|------------------|---------4-5-6-----|--------------------0-----|
E|-4-4--------4-----|-----4----4--4--3-|-------------------|----------------------4-3-|
B|------------------|------------------|-0-----------------|-3------------------------|
   S S S E. E E E Q   S E E. E E. E. E   E. E. E S S S S Q   E S E S S S S E. S S S S

                                                              2/4
G|-------3-----------|--------------------|-----------------|---------|
D|----4--------3-----|--------------------|-----------------|---------|
A|-----------3-------|-1--1---------------|-------4---------|---------|
E|-2-------1---------|-------1----6-------|----4------------|---------|
B|-------------------|---------4----6-5-4-|-2-------2--2----|-4--4----|
   E. E. E S S S S Q   E. E. E E. E S S S   E. E. E E. E. E   E. E. E

Horn Break

   4/4
G|-----------1-4-3-----------|---5-3-2-------------------|-2---------------------------|
D|-1-3---1-3-------0---------|---------5-4---2-1---------|-------3-0---5-------4-------|
A|-----2-----------------4-3-|-------------------0-4-3---|-----------3---7-4-----6-3---|
E|---------------------------|---------------------------|-------------------5-------4-|
B|---------------------------|---------------------------|-----------------------------|
   E S S S S S S S S Q   S S   S E S E S S S S S S S S E   Q   S S S S S S S S S S S S

                           3/4
G|-----------------------|---------------|
D|---------------5---5---|---------------|
A|-------3-5-------------|---------------|
E|-3---------3-----------|-3---2---------|
B|-----------------------|---------------|
   Q   S S S S S E S E E   E S E S E Q

Guitar Solo/Verse 3

G|-----------------|-----------------|-----------------|-----------------------|
D|-----------------|-----------------|-----------------|-----------------------|
A|----7----5-------|-7-----6-5-----5-|----7----5-------|-------0-1-2-----------|
E|-------4/--------|-----------------|-------4/--------|-2-5-3-------3/--------|
B|-5---------------|----5-------3----|-5---------------|-----------------2-3-4-|
   E. E. E E E Q     E. E. E E. E. E   E. E. E E E Q     E.E S S S S Q   S S S

G|-----------------|-----------------|---------------------|---------------------|
D|-----------------|-----------------|-------6-------------|---------------------|
A|----7----5-------|-7-----6-5-----5-|-7-7-----x-7-7-x-----|----7--6---2-5-4-0-2-|
E|-------4/--------|-----------------|---------------------|---------------------|
B|-5---------------|----5-------3----|---------------------|-5-------------------|
   E. E. E E E Q     E. E. E E. E. E   S S S E S S S E E Q   E. E. E E S S S E S

G|-----------------|-----------------|-----------------|-----------------------|
D|-----------------|-----------------|-----------------|-----------------------|
A|----7----5-------|-7-----6-5-----5-|----7----5-------|-------0-1-2-----------|
E|-------4/--------|-----------------|-------4/--------|-2-5-3-------3/--------|
B|-5---------------|----5-------3----|-5---------------|-----------------2-3-4-|
   E. E. E E E Q     E. E. E E. E. E   E. E. E E E Q     E.E S S S S Q   S S S

G|-----------------|-----------------|-------------------|---------------------|
D|-----------------|-----------------|-------6-----------|---------------------|
A|----7----5-------|-7-----6-5-----5-|-7-7-----x-7-6-----|-7---6---5---5-6-7---|
E|-------4/--------|-----------------|-------------------|-----------7---------|
B|-5---------------|----5-------3----|-------------------|---5---5-----------5-|
   E. E. E E E Q     E. E. E E. E. E   S S S E S E E E Q   E.S E.S S S S S S E.

G|-----------------|---------------------|-----------------|----------------------|
D|-----------------|---------------------|-----------------|--------4-3-2---0-2---|
A|----7----5-------|----7----5---5---5-7-|-5--7----5-------|-5--5-----------------|
E|-------4/--------|-------4/------7-----|-------7/--------|--------------0-------|
B|-5---------------|-5-------------------|-----------------|----------------------|
   E. E. E E E Q     E. E. E E S E S S S   E. E. E E E Q     E. E S S S E E S S E

G|-----------------|-1--4------------|
D|-----------------|-----------------|
A|----7----5-------|-------0---------|
E|-------4/--------|-----------------|
B|-5---------------|-----------------|
   E. E. E E E Q     E. E. E H

Chorus 3

G||------------------|-----------------|-----------------|--------------------------|
D||o-----------------|-----------------|-1--1------------|--------------3-----3-----|
A||----------3--3----|-3--3----1--1----|---------4--4----|-2--2---------------------|
E||o-3--3------------|-----------------|-----------------|--------1-1-1---1-1---1-1-|
B||------------------|-----------------|-----------------|--------------------------|
     E. E. E E. E. E   E. E. E E. E. E   E. E. E E. E. E   E. E.S S S S S S S S S S


G|-----------------|-----------------|------------------||
D|---3-------------|-----------------|-----------------o||
A|---------5--5----|-5--5----4--4----|-4--4----4--4-----||
E|-1---------------|-----------------|-----------------o||
B|-----------------|-----------------|------------------||
   S E.Q   E. E. E   E. E. E E. E. E   E. E. E E. E. E 

Sax Solo/Outro

G||------------------|-----------------|-----------------|--------------------------|
D||o-----------------|-----------------|-1--1------------|--------------3-----3-----|
A||----------3--3----|-3--3----1--1----|---------4--4----|-2--2---------------------|
E||o-3--3------------|-----------------|-----------------|--------1-1-1---1-1---1-1-|
B||------------------|-----------------|-----------------|--------------------------|
     E. E. E E. E. E   E. E. E E. E. E   E. E. E E. E. E   E. E.S S S S S S S S S S

                                                      x3
G|-----------------|-----------------|------------------||
D|---3-------------|-----------------|-----------------o||
A|---------5--5----|-5--5----4--4----|-4--4----4--4-----||
E|-1---------------|-----------------|-----------------o||
B|-----------------|-----------------|------------------||
   S E.Q   E. E. E   E. E. E E. E. E   E. E. E E. E. E 

G|-----------------|-----------------|-----------------|--------------------------|
D|-----------------|-----------------|-1--1------------|--------------3-----3-----|
A|---------3--3----|-3--3----1--1----|---------4--4----|-2--2---------------------|
E|-3--3------------|-----------------|-----------------|--------1-1-1---1-1---1-1-|
B|-----------------|-----------------|-----------------|--------------------------|
   E. E. E E. E. E   E. E. E E. E. E   E. E. E E. E. E   E. E.S S S S S S S S S S

G|-----------------||
D|---3-------------||
A|---------5--5----||
E|-1---------------||
B|-----------------||
   S E.Q   E. E. E


Key to rhythm notations:

W - Whole Note/Semi-Brieve
H - Half Note/Minim
Q - Quarter Note/Crotchet       Q. - Dotted Quarter Note
E - Eight Note/Quaver           E. - Dotted Eight Note
S - Sixteenth Note/Semi-Quaver  S. - Dotted Sixteenth Note

            
            
Suggest correction
Creating personal tab
Creating personal tab
You can edit any tab online and save it as your Personal.

You can edit, replace or remove any tab part or add personal notes – all changes will be seen only by you.

Personal tabs can be accessed anytime from any device, even offline.
Learn more »
Give kudos to tab author, rate the tab!
1 2 3 4 5
comments
print report bad tab
guest
You may want to rate the tab now too:
select rating
Wanna post a correction for this tab? Suggest correction