Oops, an error
Loading. Please wait.

Haitian Divorce bass

725 views 12 this week
no commentswrite comment
1 2 3 4 5
2 more votes to show rating
add to favorites
×
Save as Personal and add changes to this tab that will be seen only by you. Learn more ›
×
You can save this tab as Personal to edit and correct it or add notes. All changes will be seen only by you. Learn more »
launch autoscroll
font size
0
reset
guitar tuner
backing track
0:00
0:00
edit
Autoscroll
slow
fast
+/-
esc
set tempo
stop
Author
Difficulty
                                  Haitian Divorce
                                     Steely Dan

Bass                                                              Donald Fagen
                                                                 Walter Becker
As played by Walter Becker

In 2/2

Intro

|-----------------|-----------------|-----------------|
|---  6 Bars   ---|-----------------|-----------------|
|---   Rest    ---|-----------------|-----------------|
|-----------------|-0---------------|-4-------5-------|
                    W                 H       H

Verse 1

|-----------------|-----------------|-----------------|-----------------|
|-------------2-3-|-4---------------|-----------------|-----------------|
|-2---------------|-----------4-----|-----------------|-4---------4-2---|
|-----------------|-------------2---|-0-------------4-|-----------------|
  Q   Q   Q   E E   Q   Q   E E Q     Q   Q   Q   E E   Q   Q   E E Q

|-----------------|-----------------|-----------------|-----------------|
|-----------------|-----------------|-----------------|-----------------|
|-----------------|-------------2-3-|-4-4-----------4-|-4-4-------------|
|-5-----------5---|-4---------------|-----------------|-----------4-2---|
  Q   Q   Q   Q     Q   Q   Q   E E   E E Q   Q   E E   E E Q   E E Q 

|-----------------|-----------------|-----------------|-----------------|
|-------------2-3-|-4---------------|-----------------|-----------------|
|-2---------------|-----------------|-----------------|-4---------------|
|-----------------|-----------0-2---|-0-------------4-|-----------------|
  Q   Q   Q   E E   Q   Q   E E Q     Q   Q   Q   E E   Q   Q   H

|-----------------|-----------------|-----------------|-2-----2---------|
|-----------------|-----------------|-2-----2-------2-|---------6-------|
|-----------------|-1---------------|---1-2-----------|-----------------|
|-5-------------5-|-----------------|-----------------|-------------4---|
  Q   Q   Q   E E   Q   Q   H         E E E E Q   E E   Q.    E Q   Q

|-----------------|-----------------|-----------------|-----------------|
|-----------------|-----------------|-----------------|-----------------|
|-----------------|-2---------------|-------------4---|-2---------------|
|-2---------------|-------------0-1-|-2---------------|-----------------|
  Q   Q   H         Q   Q   Q   E E   Q   Q   Q   Q     Q   Q   H

Chorus 1

|-----------------|-----------------|-----------------|-----------------|
|-2---------------|-----------------|-----------------|-----------------|
|-----------------|-5---------------|-----------------|-------------2---|
|-----------------|-------------3-4-|-5-------------2-|-3-3-3-3---5-----|
  W                 H.          E E   E E Q   Q   E E   E E E Q   E Q

|-----------------|-----------------|---4---4---4-----|-----------------|
|-----------------|-----------------|-2---------------|-2---------------|
|-3-----------2---|-3-------2-------|-------------2---|-----------------|
|-------5-3-------|-----------------|-----------------|-----------------|
  Q.    E Q   Q     H       H         E Q   Q   E Q     Q   Q   H

|-----------------|-----------------|-----------------|-----------------|
|-2---------------|-----------------|-----------------|-----------------|
|-----------------|-5---------------|-----------------|-------------2---|
|-----------------|-------------3-4-|-5-------------2-|-3-3-3-3---5-----|
  W                 H.          E E   E E Q   Q   E E   E E E Q   E Q

|-----------------|-----------------|-----------------|-----------------|
|-----------------|-----------------|-----------------|-----------------|
|-3-----------2---|-3-------2-------|-----------------|-----------------|
|-------5-3-------|-----------------|-0---------------|(0)--------------|
  Q.    E Q   Q     H       H         W                 W

|-----------------|-----------------|
|-----------------|-----------------|
|-----------------|-----------------|
|-0---------------|-4-------5-------|
  W                 H       H

Verse 2 (Same as Verse 1)

|-----------------|-----------------|-----------------|-----------------|
|-------------2-3-|-4---------------|-----------------|-----------------|
|-2---------------|-----------4-----|-----------------|-4---------4-2---|
|-----------------|-------------2---|-0-------------4-|-----------------|
  Q   Q   Q   E E   Q   Q   E E Q     Q   Q   Q   E E   Q   Q   E E Q

|-----------------|-----------------|-----------------|-----------------|
|-----------------|-----------------|-----------------|-----------------|
|-----------------|-------------2-3-|-4-4-----------4-|-4-4-------------|
|-5-----------5---|-4---------------|-----------------|-----------4-2---|
  Q   Q   Q   Q     Q   Q   Q   E E   E E Q   Q   E E   E E Q   E E Q 

|-----------------|-----------------|-----------------|-----------------|
|-------------2-3-|-4---------------|-----------------|-----------------|
|-2---------------|-----------------|-----------------|-4---------------|
|-----------------|-----------0-2---|-0-------------4-|-----------------|
  Q   Q   Q   E E   Q   Q   E E Q     Q   Q   Q   E E   Q   Q   H

|-----------------|-----------------|-----------------|-2-----2---------|
|-----------------|-----------------|-2-----2-------2-|---------6-------|
|-----------------|-1---------------|---1-2-----------|-----------------|
|-5-------------5-|-----------------|-----------------|-------------4---|
  Q   Q   Q   E E   Q   Q   H         E E E E Q   E E   Q.    E Q   Q

|-----------------|-----------------|-----------------|-----------------|
|-----------------|-----------------|-----------------|-----------------|
|-----------------|-2---------------|-------------4---|-2---------------|
|-2---------------|-------------0-1-|-2---------------|-----------------|
  Q   Q   H         Q   Q   Q   E E   Q   Q   Q   Q     Q   Q   H

Chorus 2

|-----------------|-----------------|-----------------|-----------------|
|-2---------------|-----------------|-----------------|-----------------|
|-----------------|-5---------------|-----------------|-------------2---|
|-----------------|-------------3-4-|-5-------------2-|-3-3-3-3---5-----|
  W                 H.          E E   E E Q   Q   E E   E E E Q   E Q

|-----------------|-----------------|---4---4---4-----|-----------------|
|-----------------|-----------------|-2---------------|-2---------------|
|-3-----------2---|-3-------2-------|-------------2---|-----------------|
|-------5-3-------|-----------------|-----------------|-----------------|
  Q.    E Q   Q     H       H         E Q   Q   E Q     Q   Q   H

|-----------------|-----------------|-----------------|-----------------|
|-2---------------|-----------------|-----------------|-----------------|
|-----------------|-5---------------|-----------------|-------------2---|
|-----------------|-------------3-4-|-5-------------2-|-3-3-3-3---5-----|
  W                 H.          E E   E E Q   Q   E E   E E E Q   E Q

|-----------------|-----------------|---4---4---4-----|-----------------|
|-----------------|-----------------|-2---------------|-2---------------|
|-3-----------2---|-3-------2-------|-------------2---|---------------2-|
|-------5-3-------|-----------------|-----------------|-----------------|
  Q.    E Q   Q     H       H         E Q   Q   E Q     Q   Q   Q   E E

|---4---4---4-----|-----------------|
|-2---------------|-2---------------|
|-------------2---|-----------------|
|-----------------|-------------3---|
  E Q   Q   E Q     Q   Q   Q   Q

Bridge

|-----------------|-----------------|-------------4---|-----------------|
|-----------------|-----------------|-2-----2---------|-2-----2---------|
|-3-----3---------|---3---------3---|---------2-------|---------2-------|
|---------3-------|-----5---3-------|-----------------|-----------------|
  Q.    E H         E E Q   Q   Q     Q.    E Q   Q     Q.    E H

|-----------------|-----------------|-----------------|-----------------|
|-----------------|-----------------|-5-----5---------|-----------------|
|-5-----5-----5-5-|(5)----5-----5---|---------5-------|---------2---5---|
|---------5-------|---------5-------|---------------3-|-3-----3---------|
  Q.    E Q   E E   Q.    E Q   Q     Q.    E E E E E   Q.    E Q   Q

|-----------------|-----------------|-----------------|-----------------|
|-----------------|-----------------|-3-----3---------|-----------------|
|---------2-----2-|-3---------------|---------3-------|-----------5-----|
|-3-----3---------|-----------------|---------------2-|-3-----3---------|
  Q.    E Q.    E   W                 Q.    E Q.    E   Q.    Q   Q.

|-----------------|-----------------|-----------------|-----------------|
|-----------------|-----------------|-----------------|-2---------------|
|-----------------|-----------------|---------4-----4-|-----------------|
|-1-----------1-2-|-3-----------3-4-|-5-----5---------|-------0-0---5---|
  H.          E E   H.          E E   Q.    E Q.    E   Q.    E Q   Q

|-----------------|-----------------|
|---------2-------|-5-----5-----2---|
|-3---------------|---------3-------|
|-----------------|-----------------|
  H       H         Q.    E Q   Q

Solo
                                                                         x4
||------------------|-----------------|-----------------|------------------||
||o-----------------|-----------------|-------2---------|-----------------o||
||o-----------------|-----------------|-3-5-------5-3---|-1-------0-------o||
||--3-3-----------3-|-1-1-----------3-|-----------------|------------------||
    E E Q   Q   E E   E E Q   Q   E E   E Q   Q   E Q     H       H

|---------4-------|-----------------|
|-----------------|-----------------|
|-3---------2-----|-3-------2-------|
|-----------------|-----------------|
  H       E Q.      H       H

Interlude

|-----------------|-----------------|-----------------|-----------------|
|-----------------|---  5 Bars   ---|-----------------|-----------------|
|-----------------|---   Rest    ---|-----------------|-----------------|
|-0---------------|-----------------|-0---------------|-4-------5-------|
  W                                   W                 H       H

Verse 3 (Same as Verse 1)

|-----------------|-----------------|-----------------|-----------------|
|-------------2-3-|-4---------------|-----------------|-----------------|
|-2---------------|-----------4-----|-----------------|-4---------4-2---|
|-----------------|-------------2---|-0-------------4-|-----------------|
  Q   Q   Q   E E   Q   Q   E E Q     Q   Q   Q   E E   Q   Q   E E Q

|-----------------|-----------------|-----------------|-----------------|
|-----------------|-----------------|-----------------|-----------------|
|-----------------|-------------2-3-|-4-4-----------4-|-4-4-------------|
|-5-----------5---|-4---------------|-----------------|-----------4-2---|
  Q   Q   Q   Q     Q   Q   Q   E E   E E Q   Q   E E   E E Q   E E Q 

|-----------------|-----------------|-----------------|-----------------|
|-------------2-3-|-4---------------|-----------------|-----------------|
|-2---------------|-----------------|-----------------|-4---------------|
|-----------------|-----------0-2---|-0-------------4-|-----------------|
  Q   Q   Q   E E   Q   Q   E E Q     Q   Q   Q   E E   Q   Q   H

|-----------------|-----------------|-----------------|-2-----2---------|
|-----------------|-----------------|-2-----2-------2-|---------6-------|
|-----------------|-1---------------|---1-2-----------|-----------------|
|-5-------------5-|-----------------|-----------------|-------------4---|
  Q   Q   Q   E E   Q   Q   H         E E E E Q   E E   Q.    E Q   Q

|-----------------|-----------------|-----------------|-----------------|
|-----------------|-----------------|-----------------|-----------------|
|-----------------|-2---------------|-------------4---|-2---------------|
|-2---------------|-------------0-1-|-2---------------|-----------------|
  Q   Q   H         Q   Q   Q   E E   Q   Q   Q   Q     Q   Q   H

Chorus 3

|-----------------|-----------------|-----------------|-----------------|
|-2---------------|-----------------|-----------------|-----------------|
|-----------------|-5---------------|-----------------|-------------2---|
|-----------------|-------------3-4-|-5-------------2-|-3-3-3-3---5-----|
  W                 H.          E E   E E Q   Q   E E   E E E Q   E Q

|-----------------|-----------------|---4---4---4-----|-----------------|
|-----------------|-----------------|-2---------------|-2---------------|
|-3-----------2---|-3-------2-------|-------------2---|-----------------|
|-------5-3-------|-----------------|-----------------|-----------------|
  Q.    E Q   Q     H       H         E Q   Q   E Q     Q   Q   H

|-----------------|-----------------|-----------------|-----------------|
|-2---------------|-----------------|-----------------|-----------------|
|-----------------|-5---------------|-----------------|-------------2---|
|-----------------|-------------3-4-|-5-------------2-|-3-3-3-3---5-----|
  W                 H.          E E   E E Q   Q   E E   E E E Q   E Q

|-----------------|-----------------|---4---4---4-----|-----------------|
|-----------------|-----------------|-2---------------|-2---------------|
|-3-----------2---|-3-------2-------|-------------2---|---------------2-|
|-------5-3-------|-----------------|-----------------|-----------------|
  Q.    E Q   Q     H       H         E Q   Q   E Q     Q   Q   Q   E E

|---4---4---4-----|-----------------|
|-2---------------|-2-----2---------|
|-------------2---|---------2---3---|
|-----------------|-----------------|
  E Q   Q   E Q     Q.    E Q   Q

Outro
                                                                        x3
||------------------|-----------------|-----------------|-----------------||
||o-----------------|-----------------|-----------------|----------------o||
||o-----------------|-------0---1---3-|-3---------------|-1-------0------o||
||--3-3-----------3-|-1-3-------------|---------------3-|-----------------||
    E E Q   Q   E E   E Q   Q   Q   E   E E Q   Q   E E   H       H

|-----------------|-----------------|---4---4---4-----|-----------------|
|-----------------|-----------------|-2---------------|-2---------------|
|-----------------|---------------2-|-------------2---|-----------------|
|-1-----------1-1-|-----------------|-----------------|-----------------|
  E E Q   Q   E E   Q   Q   Q   E E   E Q   Q   E Q     E E Q   H

|-----------------|-----------------|---4---4---4-----|-----------------|
|-----------------|-----------------|-2---------------|-2---------------|
|-----------------|---------------2-|-------------2---|-----------------|
|-1-----------1-1-|-----------------|-----------------|-----------------|
  E E Q   Q   E E   Q   Q   Q   E E   E Q   Q   E Q     E E Q   H

|-----------------|-----------------|---4---4---4-----|-----------------|
|-----3-3---------|-----------------|-2---------------|-2---------------|
|-----------------|---------------2-|-------------2---|-----------------|
|-1-----------1-1-|-----------------|-----------------|-----------------|
  E E E E Q   E E   Q   Q   Q   E E   E Q   Q   E Q     E E Q   H


|-----------------|-----------------|---4---4---4-----|-----------------|
|-----------------|-----------------|-2---------------|-2---------------|
|-----------------|---------------2-|-------------2---|-----------------|
|-1-----------1-1-|-----------------|-----------------|---------------0-|
  E E Q   Q   E E   Q   Q   Q   E E   E Q   Q   E Q     E E Q   Q.    E

|-----------------|-----------------|---4---4---4-----|-----------------|
|-----3-3---------|-----------------|-2---------------|-2---------------|
|-----------------|---------------2-|-------------2---|-----------------|
|-1-----------1-1-|-----------------|-----------------|-----------------|
  E E E E Q   E E   Q   Q   Q   E E   E Q   Q   E Q     E E Q   H


|-----------------|-----------------|---4---4---4-----|-----------------|
|-----------------|-----------------|-2---------------|-2---------------|
|-----------------|---------------2-|-------------2---|-----------------|
|-1-----------1-1-|-----------------|-----------------|-----------------|
  E E Q   Q   E E   Q   Q   Q   E E   E Q   Q   E Q     E E Q   H


|-----------------|-----------------|---4---4---4-----|-----------------|
|-------------3-3-|-----------------|-2---------------|-2---------------|
|-----------------|---------------2-|-------------2---|-----------------|
|-1---------------|-----------------|-----------------|---------------0-|
  E E Q   Q   E E   Q   Q   Q   E E   E Q   Q   E Q     E E Q   Q.    E

||------------------|-----------------|---4---4---4-----|------------------||
||o-----3-3---------|-----------------|-2---------------|-2---------------o||
||o-----------------|---------------2-|-------------2---|-----------------o||
||--1-----------1-1-|-----------------|-----------------|---------------0--||
    E E E E Q   E E   Q   Q   Q   E E   E Q   Q   E Q     E E Q   Q.    E


Key to rhythm notations:

W - Whole Note/Semi-Brieve
H - Half Note/Minim
Q - Quarter Note/Crotchet       Q. - Dotted Quarter Note
E - Eight Note/Quaver           E. - Dotted Eight Note
S - Sixteenth Note/Semi-Quaver  S. - Dotted Sixteenth Note
Suggest correction
Creating personal tab
Creating personal tab
You can edit any tab online and save it as your Personal.

You can edit, replace or remove any tab part or add personal notes – all changes will be seen only by you.

Personal tabs can be accessed anytime from any device, even offline.
Learn more »
Give kudos to tab author, rate the tab!
1 2 3 4 5
comments
print report bad tab
guest
You may want to rate the tab now too:
select rating
Wanna post a correction for this tab? Suggest correction