Oops, an error
Loading. Please wait.

Hey Nineteen Bass Tab

version 1
version 1

Whole song

Interactive

6,410 views 12 this week
no commentswrite comment
1 2 3 4 5
x 4
add to favorites
launch autoscroll
font size
0
reset
guitar tuner
Autoscroll
slow
fast
+/-
esc
set tempo
stop
Help us to improve Ultimate-Guitar.com Take our survey!
×
Difficulty
intermediate
Steely Dan - Hey 19
Couldn't find it, so I did a midi to tab conversion. No implied timing.
-The Gaff says thanks to all the tabbers!
Sure Looks Good!
G ------|------|---|----------|------------|----------|------------|
D ------|------|---|----------|--------0-4-|----------|------------|
A ------|------|-4-|----------|-2----2-----|----------|-2------2-4-|
E ------|------|---|-2--4-4-2-|----4-------|-2--4-4-2-|----4-4-----|

G -----------|---------|---------|-----|---------|---------|---------|
D -----------|---------|---------|-----|---------|---------|---------|
A -------4---|-5-----5-|---4-4-4-|-----|-5-------|-------4-|-5-------|
E -2-5-5---5-|---3-3---|-2-------|-5-5-|---2-2-2-|-3-5-5---|---2-2-2-|

G -----------|---------|-----------|---------|-------------|---------|
D ---0-0-----|-0-------|-----------|-0-------|-------------|-0-------|
A -------2-0-|---------|---0-0-2-0-|---------|-----0-0-3-0-|---------|
E -3---------|---2-2-2-|-3---------|---2-2-2-|-3-3---------|---2-2-2-|

G ------  ---|---------|-----------|-------|---------|---------|---------|
D ------  ---|-0-------|-------0-0-|-------|---------|---------|---------|
A ---0-0  -4-|---------|---0-0-----|-------|---0-0-1-|-2-2-4-4-|-----4-4-|
E -3----  ---|---2-2-2-|-3---------|-2-2-2-|-3-------|---------|-3-3-----|

G ---------|-------------|---------|-------------|-----------|-------------|
D ---------|---------0-0-|---------|---------0-4-|-----------|-0-0-----0---|
A ---------|-2-----2-----|---------|-2-2---2-----|---0-0-4-0-|-------------|
E -2-4-4-2-|---4-4-------|-2-4-4-2-|-----4-------|-2---------|-----3-3---3-|

G -------|-----|---------|-----------|---------|-----------|
D -------|-----|-0-------|-----------|-0-------|---0-0-----|
A ---4-4-|-0-0-|---------|---0-0-4-0-|---------|-------2-0-|
E -2-----|-----|---2-2-2-|-3---------|---2-2-2-|-3---------|

G ---------|-----------|---------|---------|---------|---------|---------|
D -0-------|-----------|-0-------|---------|-0-------|---------|-0-------|
A ---------|-----0-0-4-|---------|-----0-3-|---------|---0-0-4-|---------|
E ---2-2-2-|-3-3-------|---2-2-2-|-3-3-----|---2-2-2-|-3-------|---2-2-2-|

G ---------|---------|---------|---------|---------|-----------|-------------|
D ---------|-0-------|---------|---------|---------|-----------|---------0-4-|
A ---0-3-0-|---------|---0-0-1-|-2-2-4-4-|-----4-4-|-----------|-2-2---2-----|
E -3-------|---2-2-2-|-3-------|---------|-3-3-----|-2-2-4-4-2-|-----4-------|

G -----------|-----------|---------|---------|---------|-----|
D -----------|-----------|---------|-0-0-----|---------|-----|
A -----------|-2-2---2-4-|---0-4-0-|---------|-----4-4-|-0-0-|
E -2-2-4-4-2-|-----4-----|-2-------|-----3-3-|-2-2-----|-----|

G -----------|---------|---------|---------|-------3-|-----3-|-------2-|
D -2-2-------|-2---2-2-|---------|---------|---3-3---|---3---|---2-2---|
A -----2-2-2-|---2-----|-3-----1-|-3---3---|-1-------|-1-----|-0-------|
E -----------|---------|---3-3---|---3---1-|---------|-------|---------|

G -------2-|---------|---------|---------|---------|---------|---------|
D -----2---|-0-------|---------|-0-------|-------0-|-0-------|-------2-|
A -0-0-----|---------|---0-0-4-|---------|---4-0---|---------|---0-0---|
E ---------|---2-2-2-|-3-------|---2-2-2-|-3-------|---2-2-2-|-3-------|

G ---------|-----------|---------|---------|---------|-----------|
D -0-------|-----------|-0-------|---------|-0-------|---0-0-----|
A ---------|-----0-3-4-|---------|---0-0-4-|---------|-------2-0-|
E ---2-2-2-|-3-3-------|---2-2-2-|-3-------|---2-2-2-|-3---------|

G ---------|---------|---------|-----------|---------|-------|---------|
D -0-------|---------|-0-------|-----------|-0-------|-------|-0-------|
A ---------|---0-0-4-|---------|---0-0-3-4-|---------|---0-4-|---------|
E ---2-2-2-|-3-------|---2-2-2-|-3---------|---2-2-2-|-3-----|---2-2-2-|

G ---------|---------|---------|---------|---------|---------|-------|
D ---------|-0-------|---------|-0-------|---------|-0-------|-------|
A ---4-2-0-|---------|---2-0-4-|---------|-----0-4-|---------|---0-4-|
E -3-------|---2-2-2-|-3-------|---2-2-2-|-3-3-----|---2-2-2-|-3-----|

G ---------|---------|---------|---------|---------|-------|---------|
D -0-------|---------|-0-------|---------|-0-------|-------|-0-------|
A ---------|---4-2-0-|---------|---0-0-4-|---------|---0-4-|---------|
E ---2-2-2-|-3-------|---2-2-2-|-3-------|---2-2-2-|-3-----|---2-2-2-|

G -----------|---------|-----------|---------|---------|---------|
D ---------2-|-0-------|-----------|-0-------|---------|---------|
A ---0-0-4---|---------|---4-4-2-0-|---------|---0-0-0-|-2-2-4-4-|
E -3---------|---2-2-2-|-3---------|---2-2-2-|-3-------|---------|

G ---------|---------|-------------|---------|-----------|---------|-----------|
D ---------|---------|---------0-4-|---------|-----------|---------|-0-----0---|
A -----4-4-|---------|-2-----2-----|---------|-2-----2-4-|---0-0-0-|-----------|
E -3-3-----|-2-4-4-2-|---4-4-------|-2-4-4-2-|---4-4-----|-2-------|---3-3---3-|

G ---------|-----|---------|---------|---------|-----7---|---------|
D ---------|-----|-0-------|---------|-0-------|---------|-0-------|
A ---4-4-4-|-0-0-|---------|---0-0-4-|---------|---4---0-|---------|
E -2-------|-----|---2-2-2-|-3-------|---2-2-2-|-3-------|---2-2-2-|

G ---------|---------|-----0-2---|---------|---------|---------|
D ---------|-0-------|---0-------|-0-------|---------|-0-------|
A ---2-0-4-|---------|---------0-|---------|---0-0-4-|---------|
E -3-------|---2-2-2-|-3---------|---2-2-2-|-3-------|---2-2-2-|

G -----7---|---------|---------|---------|---------|---------|---------|
D ---------|-0-------|---------|-0-------|---------|-0-------|---------|
A ---4---0-|---------|---0-0-3-|---------|---3-0-4-|---------|---0-0-4-|
E -3-------|---2-2-2-|-3-------|---2-2-2-|-3-------|---2-2-2-|-3-------|

G ---------|-----7-2---|---------|---------|---------|-----------|
D -0-------|-----------|-0-------|---------|-0-------|-----------|
A ---------|---4-----0-|---------|---0-0-3-|---------|-----0-3-4-|
E ---2-2-2-|-3---------|---2-2-2-|-3-------|---2-2-2-|-3-3-------|

G ---------|---------|---------|-----7---|---------|-------------|---------|
D -0-------|-------2-|-0-------|---------|-0-------|-------------|-0-------|
A ---------|---0-0---|---------|---4---0-|---------|-----0-0-2-3-|---------|
E ---2-2-2-|-3-------|---2-2-2-|-3-------|---2-2-2-|-3-3---------|---2-2-2-|

G -----------|---------|---------|---------|-----7---|---7-------|
D -----------|-0-------|---------|-0-------|---0-----|-0---------|
A -----0-3-0-|---------|---0-0-4-|---------|-------3-|-----------|
E -3-3-------|---2-2-2-|-3-------|---2-2-2-|-3-------|-----2-2-2-|

G ---------|---------|---------|---------|---------|
D ---------|-0-------|---------|-0-------|---------|
A ---0-0-4-|---------|-----0-0-|---------|---0-0-4-|
E -3-------|---2-2-2-|-3-3-----|---2-2-2-|-3-------|

Suggest correction
comments
print report bad tab
guest
You may want to rate the tab now too:
select rating
Wanna post a correction for this tab? Suggest correction