Oops, an error
Loading. Please wait.

Home At Last Tab

22 views 3 this week
no commentswrite comment
1 2 3 4 5
3 more votes to show rating
add to favorites
launch autoscroll
font size
0
reset
how to read this tab
guitar tuner
Autoscroll
slow
fast
+/-
esc
set tempo
stop
Help us to improve Ultimate-Guitar.com Take our survey!
×
Author
Difficulty
Capo
intermediate
3rd fret
e|------2---2---2-----------------2--2--2----------------0--0--0---------------------------------|
B|------3---3---3---3---3---------3--3--3-------0--------3--3--3-----0-----------0-------0-------|
G|------0---0---0---0---0---------0--0--0------0-0-------0--0--0----0-0---------0-0-----0-0------|
D|------0---0---0---0---0---------0--0--0-----2---2------2--2--2---4---4-------4---4---4---4-----|
A|-2---2-------------------------2----------3------3----2---------5-----5-----2-----2-3-----3----|
E|0----------------2----3-------0-------------------0--0---------------------0---------------0---|

[Intro]

e|------2---2---2-----------------2--2--2----------------0--0--0---------------------------------|
B|------3---3---3---3---3---------3--3--3-------0--------3--3--3-----0-----------0-------0-------|
G|------0---0---0---0---0---------0--0--0------0-0-------0--0--0----0-0---------0-0-----0-0------|
D|------0---0---0---0---0---------0--0--0-----2---2------2--2--2---4---4-------4---4---4---4-----|
A|-2---2-------------------------2----------3------3----2---------5-----5-----2-----2-3-----3----|
E|0----------------2----3-------0-------------------0--0---------------------0---------------0---|

 [horns]

     GM7/B   F#m7b11#5 Em7     B+7#9                E7sus4  E7
e|----2--------0--------0--------3--------------------0-----0------------------|
B|----3--------3--------3--------3--------------------0-----0------------------|
G|----0--------3--------0--------2--------------------2-----1------------------|
D|----0--------2--------2--------1--------------------0-----0------------------|
A|----2--------0--------2--------2--------------------2-----2------------------|
E|---0--------2--------0--------0--------------------0-----0-------------------|


[Verse]

    I know that superhighway       this bright familiar sun

     C9            G6                CM9         GM
e|-----0-----------0-----------------0-----------0-------------------------------|
B|-----3-----------3-----------------2-----------3-------------------------------|
G|-----0-----------0-----------------4-----------3-------------------------------|
D|-----2-----------0-----------------2-----------4-------------------------------|
A|-----3-----------2-----------------3-----------0-------------------------------|
E|-----0-----------3-----------------0-----------3-------------------------------|

      I     guess that     I'm the       lucky         one

     C9          B7        E7sus4        FM7+6          Em7

e|----0-----------0----------0-------------0--------------3--2--0--2----------------|
B|----3-----------3----------0-------------1--------------3-------------------------|
G|----0-----------2----------2-------------2--------------0-------------------------|
D|----2-----------1----------0-------------0--------------2-------------------------|
A|----3-----------2----------2-------------0-------------2--------------------------|
E|----0-----------0----------0-------------1------------0---------------------------|


 who  wrote this tired sea song   set on this peaceful shore

     C9            G6                CM9         GM
e|-----0-----------0-----------------0-----------0-------------------------------|
B|-----3-----------3-----------------2-----------3-------------------------------|
G|-----0-----------0-----------------4-----------3-------------------------------|
D|-----2-----------0-----------------2-----------4-------------------------------|
A|-----3-----------2-----------------3-----------0-------------------------------|
E|-----0-----------3-----------------0-----------3-------------------------------|

      You    think you've  heard this     one         before

     C9          B7        E7sus4        FM7+6          Em7

e|----0-----------0----------0-------------0--------------3--2--0--2--------------|
B|----3-----------3----------0-------------1--------------3-----------------------|
G|----0-----------2----------2-------------2--------------0-----------------------|
D|----2-----------1----------0-------------0--------------2-----------------------|
A|----3-----------2----------2-------------0--------------2-----------------------|
E|----0-----------0----------0-------------1--------------0-----------------------|

[Chorus]

well the   danger on the rocks is surely past   still I   remain tied   to the mast

             AM7         CM          D6          Am7        Am9          Bm        Bm#5

e|-----------0-----------0------------5h---------0------------0-----------0---------0-----|
B|-----------1-----------0------------0----------5------------0-----------3---------3-----|
G|-----------0-----------0------------0----------5------------5-----------4---------0-----|
D|-----------2-----------2------------4----------5------------5-----------4---------4-----|
A|-----------0-----------3------------5----------0------------0-----------2---------2-----|
E|-----------0-----------0------------0----------0------------0-----------0---------0-----|

       could it be that I have found my home at last      home at last

                Am9            CM           GM

e|---------------0--------------0------------0----------------------------------|
B|---------------0--------------5------------3----------------------------------|
G|---------------5--------------4------------4----------------------------------|
D|---------------5--------------5------------4----------------------------------|
A|---------------0--------------3------------0----------------------------------|
E|---------------0--------------0------------3----------------------------------|


 (chorus riff)                                        home at last

                                          D7
e|-------7-----5-----3------2--0-------0--2--3--2-------0--0---------------------|
B|-------5-----5-----3------3----3-----1--1--1--1-------0--0---------------------|
G|-------5-----5-----5------0----------2--2--2--2-------0--0---------------------|
D|-------5-----5-----5------0----------0--0--0--0-------0--2h--------------------|
A|-------0-----0-----0-----------------0--0--0--0-------0--2h--------------------|
E|-------------------------------------------------------------0-----------------|


[Instrumental]

    Am7        C              CM       Bm   Em  Am  CM   B7        Bm11 E7 Am11 D9  F#m7 F#m11 B7

e|--------------------------------------2---0---0---0----0---3------0---0---0---0------0---0---0----|
B|---0------0--0--0-----0--0---0--0-----2---0---0---0----0---3------5---0---3---3------3---0---0----|
G|---1------1--1--1-----0--0---0--0-----3---0---1---0----2---2------7---7---5---5------3---2---2----|
D|---0------0--0--0-----5--4---2--0-----4---0---0---2----1---1------7---6---5---4------2---2---1----|
A|--2----2h3------------5--5---3--3-----4---2---2---3----2---2------0---7---0---5------0---0---2----|
E|--------------------------------------2---0---0---3----0---0------7---0---5---0------2---2---0----|


 she serves that smooth retsina   she keeps me safe and warm

     C9            G6                CM9         GM
e|-----0-----------0-----------------0-----------0-------------------------------|
B|-----3-----------3-----------------2-----------3-------------------------------|
G|-----0-----------0-----------------4-----------3-------------------------------|
D|-----2-----------0-----------------2-----------4-------------------------------|
A|-----3-----------2-----------------3-----------0-------------------------------|
E|-----0-----------3-----------------0-----------3-------------------------------|

   It's        just      the calm      before    the  storm

     C9          B7        E7sus4        FM7+6          Em7

e|----0-----------0----------0-------------0--------------3--2--0--2--------------|
B|----3-----------3----------0-------------1--------------3-----------------------|
G|----0-----------2----------2-------------2--------------0-----------------------|
D|----2-----------1----------0-------------0--------------2-----------------------|
A|----3-----------2----------2-------------0--------------2-----------------------|
E|----0-----------0----------0-------------1--------------0-----------------------|

   call in my reservation    so long hey thanks my friend

     C9            G6                CM9         GM
e|-----0-----------0-----------------0-----------0-------------------------------|
B|-----3-----------3-----------------2-----------3-------------------------------|
G|-----0-----------0-----------------4-----------3-------------------------------|
D|-----2-----------0-----------------2-----------4-------------------------------|
A|-----3-----------2-----------------3-----------0-------------------------------|
E|-----0-----------3-----------------0-----------3-------------------------------|

     I         guess    I'll try      my  luck      again

     C9          B7        E7sus4        FM7+6          Em7

e|----0-----------0----------0-------------0--------------3--2--0--2--------------|
B|----3-----------3----------0-------------1--------------3-----------------------|
G|----0-----------2----------2-------------2--------------0-----------------------|
D|----2-----------1----------0-------------0--------------2-----------------------|
A|----3-----------2----------2-------------0--------------2-----------------------|
E|----0-----------0----------0-------------1--------------0-----------------------|


[Chorus]

well the   danger on the rocks is surely past   still I   remain tied   to the mast

             AM7         CM          D6          Am7        Am9          Bm        Bm#5

e|-----------0-----------0------------5h---------0------------0-----------0---------0-----|
B|-----------1-----------0------------0----------5------------0-----------3---------3-----|
G|-----------0-----------0------------0----------5------------5-----------4---------0-----|
D|-----------2-----------2------------4----------5------------5-----------4---------4-----|
A|-----------0-----------3------------5----------0------------0-----------2---------2-----|
E|-----------0-----------0------------0----------0------------0-----------0---------0-----|

       could it be that I have found my home at last      home at last

                Am9            CM           GM

e|---------------0--------------0------------0----------------------------------|
B|---------------0--------------5------------3----------------------------------|
G|---------------5--------------4------------4----------------------------------|
D|---------------5--------------5------------4----------------------------------|
A|---------------0--------------3------------0----------------------------------|
E|---------------0--------------0------------3----------------------------------|


 (chorus riff)                                        home at last

                                          D7
e|-------7-----5-----3------2--0-------0--2--3--2-------0--0---------------------|
B|-------5-----5-----3------3----3-----1--1--1--1-------0--0---------------------|
G|-------5-----5-----5------0----------2--2--2--2-------0--0---------------------|
D|-------5-----5-----5------0----------0--0--0--0-------0--2h--------------------|
A|-------0-----0-----0-----------------0--0--0--0-------0--2h--------------------|
E|---------------------------------------------------------0---------------------|


e|------2---2---2-----------------2--2--2----------------0--0--0---------------------------------|
B|------3---3---3---3---3---------3--3--3-------0--------3--3--3-----0-----------0-------0-------|
G|------0---0---0---0---0---------0--0--0------0-0-------0--0--0----0-0---------0-0-----0-0------|
D|------0---0---0---0---0---------0--0--0-----2---2------2--2--2---4---4-------4---4---4---4-----|
A|-2---2-------------------------2----------3------3----2---------5-----5-----2-----2-3-----3----|
E|0----------------2----3-------0-------------------0--0---------------------0---------------0---|
 

************************************

| h  Hammer-on

************************************
Suggest correction
Give kudos to tab author, rate the tab!
1 2 3 4 5
comments
print report bad tab
guest
You may want to rate the tab now too:
select rating
Wanna post a correction for this tab? Suggest correction