Oops, an error
Loading. Please wait.

Josie Bass Tab

version 2
version 2

Whole song

Interactive

3,946 views 1 this week
no commentswrite comment
1 2 3 4 5
please rate
add to favorites
launch autoscroll
font size
0
reset
guitar tuner
Tab Pro tools
  • play this tab
  • loop segment
  • change instrument
  • show fretboard
  • metronome
×
Best way to learn
"Josie"
Autoscroll
slow
fast
+/-
esc
set tempo
stop
Contributor
Difficulty
intermediate
Intro
|-----------------11/12~\---------11/12~\---------11/12~\---------11/12~\--|
|-----------------13/14~\---------13/14~\---------13/14~\---------13/14~\--|
|-------------4-5-----------4-5-------------4-5-------------4-5------------|
|-1-2-3-4---0-------------0~---0----------0~---0----------0~---0-----------|

|-----------------------------------------------6---7-----------------|
|---------------------------------------------------------------------|
|---------5-7-----5-4-5--5-5--7----7-------7h8---9-------------5-7----|
|-0-0h5/7----0--5-------0-5------0---0~----------------0-0h5/7----0---|

|---------------------------------------------------------------------|
|---------------------------------------------------------------------|
|---5-4--5-5x-4-3---(5)-----------------5-7-----------5---------------|
|-5----------------3----3x-2-1---0-0h5/7------0-0h5/7----3h4h5--------|

|---------------------------------------------------------------------|
|----------5-3--------------------------------------------------------|
|----0h5-3--------------5-7------------------5-7----------------------|
|-0-0-----------0-0h5/7-------3~-5~--0-0h5/7----0---------------------|


Chorus
|--------------------------------------------------------------------------|
|-------2-3-4--------/7-9-10-12---------4-5-7-9-10------------4------------|
|-----2-------2---0-------------12-----------------10-----------2-2-2-2----|
|-1-2-----------0------------------10-----------------8---0-2-----------0--|  


Verse
|---------------11/12\11/12----------------11/12\11/12----------------|
|---------------13/14\13/14----------------13/14\13/14----------------|
|---------5-7------------------------5-7------------------------------|
|-0-0h5/7-----0--------------0-0h5/7-----0----------------------------|

|-----------------------------------------------6---7-----------------|
|---------------------------------------------------------------------|
|---------5-7-----5-4-5--5-5--7----7-------7h8---9-------------5-7----|
|-0-0h5/7----0--5-------0-5------0---0~----------------0-0h5/7----0---|

|---------------------------------------------------------------------|
|---------------------------------------------------------------------|
|---5-4--5-5x-4-3---(5)-----------------5-7-----------5---------------|
|-5----------------3----3x-2-1---0-0h5/7------0-0h5/7----3h4h5--------|

|---------------------------------------------------------------------|
|----------5-3--------------------------------------------------------|
|----0h5-3--------------5-7------------------5-7----------------------|
|-0-0-----------0-0h5/7-------3~-5~--0-0h5/7----0---------------------|


Chorus
|--------------------------------------------------------------------------| 
|-------2-3-4--------/7-9-10-12---------4-5-7-9-10------------4------------|
|-----2-------2---0-------------12-----------------10-----------2-2-2-2----|
|-1-2-----------0------------------10-----------------8---0-2-----------0--|  


Interlude
|----------------------------------------------------------------------------|
|-------------5--------------5------------------5----------15-17-15-15-17~\--|
|-------5--7-----------5--7---------------5--7--------15h17------------------|
|-3-5------------3-5-----------5-7--3-5--------------------------------------|


Verse
|--------------------------------------------------------------------------------|
|--------------------------------------------------------------------------------|
|---7-5-4-5---7----5-5--7------7-5-4-5---7----5-5--7------7-5-4-5---7----5-5--7--|
|-5----------0-0--0-5--------5----------0-0--0-5--------5----------0-0--0-5------|

|----------------------------------------------------------------------|
|----------------------------------------------------------------------|
|---5-4--5-5x-4-3---(5)-----------------5-7-----------5----------------|
|-5----------------3----3x-2-1---0-0h5/7------0-0h5/7----3h4h5---------|

|----------------------------------------------------------------------|
|----------5-3---------------------------------------------------------|
|----0h5-3--------------5-7------------------5-7-----------------------|
|-0-0-----------0-0h5/7-------3~-5~--0-0h5/7----0----------------------|


Chorus
|--------------------------------------------------------------------------| 
|-------2-3-4--------/7-9-10-12---------4-5-7-9-10------------4------------|
|-----2-------2---0-------------12-----------------10-----------2-2-2-2----|
|-1-2-----------0------------------10-----------------8---0-2--------------|  

The Outro uses variations of the Intro riff...



comments
We did not receive enough feedback on this tab! Please rate:
print report bad tab
1 2 3 4 5
I want to post or [tab]
guest
You may want to rate the tab now too:
select rating
Please do not post tabs as comments. Select "correction" instead!