Oops, an error
Loading. Please wait.

Josie Tab

version 2
version 2

Whole song

Interactive

1,605 views 45 this week
no commentswrite comment
1 2 3 4 5
x 3
add to favorites
launch autoscroll
font size
0
reset
how to read this tab
guitar tuner
Autoscroll
slow
fast
+/-
esc
set tempo
stop
Help us to improve Ultimate-Guitar.com Take our survey!
×
Difficulty
advanced
JOSIE

As recorded by Steely Dan

(From the 1977 Album AJA)

Tablature (Tab) for Guitar

Transcribed by ohdan

Words and Music by Walter Becker and Donald Fagen





Em7

 x 7 x 7 8 7  



 Gtr I (E A D G B E) - 'Gtr 1'

 Gtr II (E A D G B E) - 'Gtr 2'

 Gtr III (E A D G B E) - 'Gtr 3'




 Intro
  N.C.
 4/4
  Gtr I
  E  Q   E +Q.   E   +E  Q.   +H
|------------------|-----------------|
|----3---2-(2)-----|-----------------|
|----------------3-|-(3)-4----(4)----|
|-2-(2)--4-(4)---1-|-(1)-2----(2)----|
|------------------|-----------------|
|------------------|-----------------|
|
| Gtr II
| E +Q   E +Q.   E   +E  Q.   +H
|------------------|-----------------|
|------------------|-----------------|
|------------------|-----------------|
|-2-(2)--4-(4)---1-|-(1)-2----(2)----|
|------------------|-----------------|
|------------------|-----------------|


  N.C.
                                     |-3-| |-3-|
  E  Q   E +Q.   E   +Q.   Q  Q.     Q Q Q Q Q Q
|------------------|---------------|----------------|
|----3---2-(2)-----|---------------|----------------|
|----------------3-|-(3)------2----|---2-1-0---4----|
|-2-(2)--4-(4)---1-|-(1)---4--0----|-2-------4------|
|------------------|-------2-------|----------------|
|------------------|---------------|----------------|
|
| E +Q   E +Q.   E   +Q.   Q  Q.     H     H
|------------------|---------------|----------------|
|------------------|---------------|----------------|
|------------------|---------------|----------------|
|-2-(2)--4-(4)---1-|-(1)-----------|-2-----5--------|
|------------------|-------2--5----|----------------|
|------------------|---------------|----------------|


  C/F  F#7+9  D/G  Abmaj7add6
  H    H      Q.   E +H       +W
|-0----5----|-2----3-(3)----|-(3)--------|
|-1----5----|-3----6-(6)----|-(6)--------|
|-0----3----|-2----5-(5)----|-(5)--------|
|-2---------|-0-------------|------------|
|------4----|---------------|------------|
|-1----2----|-3----4-(4)----|-(4)--------|
|
| H    H      Q.   E +H       +W
|-----------|---------------|------------|
|-----------|---------------|------------|
|-----------|---------------|------------|
|-2----4----|-4----6-(6)----|-(6)--------|
|-----------|---------------|------------|
|-----------|---------------|------------|


       Em7
    Q  E. S E e E E  7x Q  E. S E e E E
||-----7--7-x-7---7--||----7--7-x-7---7-||
||o----8--8-x-8---8-o||----8--8-x-8---8-||
||-----7--7-x-7---7--||----7--7-x-7---7-||
||-----x--x-x-x---x--||----x--x-x-x---x-||
||o----7--7-x-7---7-o||----7--7-x-7---7-||
||-------------------||-----------------||
|
|   W                7x W
||-------------------||-----------------||
||o-----------------o||-----------------||
||-------------------||-----------------||
||-------------------||-----------------||
||o-----------------o||-----------------||
||-------------------||-----------------||


   Verse
    Em7                                 Em7
    Q  E. S E e E E   Q  E. S E e E E   Q  E.  S E e E E   Q  E.  S E e E E
||-----7--7-x-7---7-|----7--7-x-7---7-|----7---7-x-7---7-|----7---7-x-7---7--|
||o----8--8-x-8---8-|----8--8-x-8---8-|----8---8-x-8---8-|----8---8-x-8---8--|
||-----7--7-x-7---7-|----7--7-x-7---7-|----7---7-x-7---7-|----7---7-x-7---7--|
||-----x--x-x-x---x-|----x--x-x-x---x-|----x---x-x-x---x-|----x---x-x-x---x--|
||o----7--7-x-7---7-|----7--7-x-7---7-|----7---7-x-7---7-|----7---7-x-7---7--|
||------------------|-----------------|------------------|-------------------|


  Em7                                 Dmaj7G/C        D/G  C/F
  Q  E. S E e E E   Q  E. S E e E E   Q.   E +H       Q.   E +H
|----7--7-x-7---7-|----7--7-x-7---7-|-5----3-(3)----|-5----3-(3)----|
|----8--8-x-8---8-|----8--8-x-8---8-|-7----3-(3)----|-7----5-(5)----|
|----7--7-x-7---7-|----7--7-x-7---7-|-6----4-(4)----|-7----5-(5)----|
|----x--x-x-x---x-|----x--x-x-x---x-|-7----5-(5)----|-5----3-(3)----|
|----7--7-x-7---7-|----7--7-x-7---7-|-5----3-(3)----|---------------|
|-----------------|-----------------|---------------|---------------|


  Em7                                 A7                G/CD/GC/F
  Q  E. S E e E E   Q  E. S E e E E   Q  E. S E e E E   Q  Q  H
|----7--7-x-7---7-|----7--7-x-7---7-|-----------------|-3--5--3----|
|----8--8-x-8---8-|----8--8-x-8---8-|----5--5-x-5---5-|-3--7--5----|
|----7--7-x-7---7-|----7--7-x-7---7-|----6--6-x-6---6-|-4--7--5----|
|----x--x-x-x---x-|----x--x-x-x---x-|----5--5-x-5---5-|-5--5--3----|
|----7--7-x-7---7-|----7--7-x-7---7-|-----------------|-3----------|
|-----------------|-----------------|-----------------|------------|


  Em7               D/G  E/A    Em7                    C/F
  Q  E. S E e E E   H    H      Q  E. S E e E E   H     H
|----7--7-x-7---7-|-5----7----|----7--7-x-7---7-|------------||
|----8--8-x-8---8-|-7----9----|----8--8-x-8---8-|-8-----8----||
|----7--7-x-7---7-|-7----9----|----7--7-x-7---7-|-7-----9----||
|----x--x-x-x---x-|-5----7----|----x--x-x-x---x-|-x----10----||
|----7--7-x-7---7-|-----------|----7--7-x-7---7-|-7-----8----||
|-----------------|-----------|-----------------|------------||


 Chorus
  $
  F#7+9 B+7    Em7  C/F     F#7+9 B+7
   H    H      H     H       H    H
|------------|------------|------------|
|-10----8----|-8-----8----|-10----8----|
|--9----8----|-7-----9----|--9----8----|
|--8----7----|-x----10----|--8----7----|
|--9---------|-7-----8----|--9---------|
|-------7----|------------|-------7----|


  Em7  A7     Am7  D9         Gmaj7Cmaj7         F#7+9
  H    H      Q.   E +H       Q.   E +H       Q    H.
|-----------|---------------|---------------|------------|
|-8----2----|-5----5-(5)----|---------------|----^10-----|
|-7----2----|-5----5-(5)----|-4----4-(4)----|----^-9-----|
|-x----5----|-5----4-(4)----|-4----2-(2)----|----^-8-----|
|-7---------|------5-(5)----|------3-(3)----|----^-9-----|
|-----------|-5-------------|-3-------------|------------|


               1.
       To Coda
  B7+9          Em7
  Q  Q  Q  Q    Q  E. S E e E E   Q  E. S E e E E
|-------------|----7--7-x-7---7-|----7--7-x-7---7-|
|-3--3--3--3--|----8--8-x-8---8-|----8--8-x-8---8-|
|-2--2--2--2--|----7--7-x-7---7-|----7--7-x-7---7-|
|-1--1--1--1--|----x--x-x-x---x-|----x--x-x-x---x-|
|-2--2--2--2--|----7--7-x-7---7-|----7--7-x-7---7-|
|-------------|-----------------|-----------------|


  Em7
  Q  E. S E e E E   Q  E. S E e E E
|----7--7-x-7---7-|----7--7-x-7---7--||
|----8--8-x-8---8-|----8--8-x-8---8-o||
|----7--7-x-7---7-|----7--7-x-7---7--||
|----x--x-x-x---x-|----x--x-x-x---x--||
|----7--7-x-7---7-|----7--7-x-7---7-o||
|-----------------|------------------||


 Bridge
  2.
  N.C.
          ~~~~~~~                        ~~~~
  Q    E  E  +H           +E   E  E  E  +H
|----------------------|-----------------------|
|-----14-15-(15)-------|-(15)-15-14-12-(12)----|
|-----14-16-(16)-------|-(16)-16-14-12-(12)----|
|----------------------|-----------------------|
|----------------------|-----------------------|
|----------------------|-----------------------|
|
| Gtr II
| E E  Q      E  E E E     E   E  Q      H
|----------------------|-----------------------|
|----------------------|-----------------------|
|----------------------|-----------------------|
|-5-7------------------|-------5---------------|
|----------------5---7-|-----------------------|
|----------------------|-----------------------|


  N.C.
          ~~~~~~~~~~~~~~~~~~~~
  Q    E  E  +H           +E   q    E  +Q     +Q
|----------------------|-----------17-(17)---(17)\--|
|-----14-15-(15)-------|-(15)-14---17-(17)---(17)\--|
|-----14-16-(16)-------|-(16)-14---14-(14)---(14)\--|
|----------------------|----------------------------|
|----------------------|----------------------------|
|----------------------|----------------------------|
|
| E E  Q      E  E E E     E   E Q      E  E   Q
|----------------------|----------------------------|
|----------------------|----------------------------|
|----------------------|----------------------------|
|-5-7------------------|-------5--------------------|
|----------------5---7-|----------------------------|
|----------------------|----------------5--7--------|


  N.C.                                    F#7+9       B7+9
                                                      Gtr III
          ~~~~~~~                                         ~~~~~
  Q    E  E  +H           +Q    Q  H       W          Q   Q      Q   E  E
|----------------------|----------------|-----------|----10-----10--10-12-||
|-----14-15-(15)-------|-(15)-----------|-----------|----13b15------------||
|-----14-16-(16)-------|-(16)-----------|-----------|---------------------||
|----------------------|----------------|-----------|---------------------||
|----------------------|----------------|-----------|---------------------||
|----------------------|----------------|-----------|---------------------||
|
| E E  Q      E  E E E     E  E Q  H       W          Q   Q      Q   Q
|----------------------|----------------|-----------|---------------------||
|----------------------|----------------|-10--------|-3---3------3---3----||
|----------------------|----------------|--9--------|-2---2------2---2----||
|-5-7------------------|------5---------|--8--------|-1---1------1---1----||
|----------------5---7-|----------------|--9--------|-2---2------2---2----||
|----------------------|----------------|-----------|---------------------||


 Guitar Solo
                        Em7
  Gtr I
   Q                    E.      S  E E  E  E     Q     E.   S E  E E  E
                        |       |  | |     |           |    | |  |    |
                        /       /  / x     /           /    / /  x    /

                                           ~~~~~~~~~
   S       +S       +Q      +E     Q    E  E    +E   q    E   E  Q    E
|-14b14.5r(14)b15==(14)r===(14)p==12------12-|-(12)---------------------|
|--------------------------------------15----|------12----------15------|
|--------------------------------------------|--------------------------|
|--------------------------------------------|-----------------------12-|
|--------------------------------------------|--------------------------|
|--------------------------------------------|--------------------------|


     Em7
  Q   E.    S   E   E E  E     Q     E.     S  E  E  E E
      |     |   |   |    |           |      |  |  |    |
      /     /   /   x    /           /      /  /  x    /

                                                     ~~
  Q   E   E    +E   Q    E    +E   Q     S  S  E  E  Q
|--------------------------|------------------12----------|
|----14--------------------|---------------12----12-15----|
|------------------12------|------14----12----------------|
|--------13---(13)------14-|-(14)-------------------------|
|--------------------------|------------------------------|
|--------------------------|------------------------------|


        Em7                             Em7
    Q    E.  S  E E E  E          W
         |   |  | |    |
         /   /  / x    /

    ~~~~
   +Q    q      q   E  E         +E   E  E   E    E  Q.
|-------12--------------------|------12---------------------|
|-(15)---------15-----14b14.5-|-(14)--------14---12---------|
|-----------------------------|---------14------------------|
|-----------------------------|---------------------14------|
|-----------------------------|-----------------------------|
|-----------------------------|-----------------------------|
|
|        W                        Q      E.    S  E  e  E E
|-----------------------------|----------7-----7--x--7----7-|
|-----------------------------|----------8-----8--x--8----8-|
|-----------------------------|----------7-----7--x--7----7-|
|-----------------------------|----------x-----x--x--x----x-|
|-----------------------------|----------7-----7--x--7----7-|
|-----------------------------|-----------------------------|


  Dmaj7               G/C                       D/G             C/F
    W                                             W
                                                           ~~~~~
    |--3---|  |----3-----|  |--3---| |3-|
   +E   E  E  E     E    E  E   E  E E  Q        +E   +E   H           E  E
|---------------------------------------------|--------------------------15b15.5-|
|------------------12---13-----12-13---13b15==|=(13)r(13)-13b15----------14b14.5-|
|---------12-14b16----------------------------|----------------------------------|
|-(14)-14-------------------------------------|----------------------------------|
|---------------------------------------------|----------------------------------|
|---------------------------------------------|----------------------------------|
|
|   Q.                E    +H                     Q.            E +H
|---5-----------------3----(3)----------------|---5-------------3-(3)------------|
|---7-----------------3----(3)----------------|---7-------------5-(5)------------|
|---6-----------------4----(4)----------------|---7-------------5-(5)------------|
|---7-----------------5----(5)----------------|---5-------------3-(3)------------|
|---5-----------------3----(3)----------------|----------------------------------|
|---------------------------------------------|----------------------------------|


     Em7
         ~~~~~~~~~                                 ~~~~
  Q  E   E    +Q     E  E    E  E  E  S  S  E     +Q.
|-------12---(12)---12----|-------------------------------|
|----------------------12-|-15-12-15----12-16b17-(16)-----|
|-------------------------|-------------------------------|
|-------------------------|-------------------------------|
|-------------------------|-------------------------------|
|-------------------------|-------------------------------|
|
| Q  E.    S   E  e  E  E    Q     E.    S  E      e  E E
|----7-----7---x--7-----7-|--------7-----7--x------7----7-|
|----8-----8---x--8-----8-|--------8-----8--x------8----8-|
|----7-----7---x--7-----7-|--------7-----7--x------7----7-|
|----x-----x---x--x-----x-|--------x-----x--x------x----x-|
|----7-----7---x--7-----7-|--------7-----7--x------7----7-|
|-------------------------|-------------------------------|


          A7                    G/C D/G     C/F
  E  E     q     E  q    E       Q    E   E  +Q         E.     +S
|---------17------------------|-14-------15-(15)b15.5--17b19==(17)---|
|------------------17---14b15-|------17------------------------------|
|---16b18-------14------------|-----(14)-----------------------------|
|-----------------------------|--------------------------------------|
|-----------------------------|--------------------------------------|
|-----------------------------|--------------------------------------|
|
| Q        E. S  E  e E  E       Q    Q       H
|-----------------------------|--3----5-------3----------------------|
|----------5--5--x--5----5----|--3----7-------5----------------------|
|----------6--6--x--6----6----|--4----7-------5----------------------|
|----------5--5--x--5----5----|--5----5-------3----------------------|
|-----------------------------|--3-----------------------------------|
|-----------------------------|--------------------------------------|


         Em7                         D/G                           E/A
                                                                             ~~~
   +H          S     +E     S  Q      +E   S     +S       +E   +E   E  E  E  E
|-(17)r-------17b19r(17)---15------|------14b15r(14)b15==(14)r(14)-------------|
|-----------------------------17---|-(17)--------------------------17p15-17-17-|
|----------------------------------|-------------------------------------------|
|----------------------------------|-------------------------------------------|
|----------------------------------|-------------------------------------------|
|----------------------------------|-------------------------------------------|
|
|   Q    E. S  E         e     E E     H                            H
|--------7--7--x---------7-------7-|---5----------------------------7----------|
|--------8--8--x---------8-------8-|---7----------------------------9----------|
|--------7--7--x---------7-------7-|---7----------------------------9----------|
|--------x--x--x---------x-------x-|---5----------------------------7----------|
|--------7--7--x---------7-------7-|-------------------------------------------|
|----------------------------------|-------------------------------------------|


                             D.S. al Coda
        Em7                           C/F
 ~~~~~~
   +Q.      S  S  H         E  E  Q    H
|-------------------------|-----------------||
|-(17)--------15----------|---12------------||
|----------14----12-------|-----------------||
|-------------------------|------14\--------||
|-------------------------|-----------------||
|-------------------------|-----------------||
|
|   Q   E.     S  E e E E   H          H
|-------7------7--x-7---7-|-----------------||
|-------8------8--x-8---8-|-8----------8----||
|-------7------7--x-7---7-|-7----------9----||
|-------x------x--x-x---x-|-x---------10----||
|-------7------7--x-7---7-|-7----------8----||
|-------------------------|-----------------||


  &
  N.C.
  Gtr I
  E  Q   E +Q.   E   +E  Q.   +H
|------------------|-----------------|
|----3---2-(2)-----|-----------------|
|----------------3-|-(3)-4----(4)----|
|-2-(2)--4-(4)---1-|-(1)-2----(2)----|
|------------------|-----------------|
|------------------|-----------------|
|
| Gtr II
| E +Q   E +Q.   E   +E  Q.   +H
|------------------|-----------------|
|------------------|-----------------|
|------------------|-----------------|
|-2-(2)--4-(4)---1-|-(1)-2----(2)----|
|------------------|-----------------|
|------------------|-----------------|


  N.C.
                                     |-3-| |-3-|
  E  Q   E +Q.   E   +Q.   Q  Q.     Q Q Q Q Q Q
|------------------|---------------|---------------|
|----3---2-(2)-----|---------------|---------------|
|----------------3-|-(3)------2----|---2-1-0---4---|
|-2-(2)--4-(4)---1-|-(1)---4--0----|-2-------4-----|
|------------------|-------2-------|---------------|
|------------------|---------------|---------------|
|
| E +Q   E +Q.   E   +Q.   Q  Q.     H     H
|------------------|---------------|---------------|
|------------------|---------------|---------------|
|------------------|---------------|---------------|
|-2-(2)--4-(4)---1-|-(1)-----------|-2-----5-------|
|------------------|-------2--5----|---------------|
|------------------|---------------|---------------|


  C/F  F#7+9  D/G  Abmaj7add6
  H    H      Q.   E +H       +W
|-0----5----|-2----3-(3)----|-(3)--------|
|-1----5----|-3----6-(6)----|-(6)--------|
|-0----3----|-2----5-(5)----|-(5)--------|
|-2---------|-0-------------|------------|
|------4----|---------------|------------|
|-1----2----|-3----4-(4)----|-(4)--------|
|
| H    H      Q.   E +H       +W
|-----------|---------------|------------|
|-----------|---------------|------------|
|-----------|---------------|------------|
|-2----4----|-4----6-(6)----|-(6)--------|
|-----------|---------------|------------|
|-----------|---------------|------------|


             Outro
              Em7
 3/4         4/4
  +H.         Q  E. S E e E E   Q  E. S E e E E
|-(3)------||----7--7-x-7---7-|----7--7-x-7---7-|
|-(6)------||----8--8-x-8---8-|----8--8-x-8---8-|
|-(5)------||----7--7-x-7---7-|----7--7-x-7---7-|
|----------||----x--x-x-x---x-|----x--x-x-x---x-|
|----------||----7--7-x-7---7-|----7--7-x-7---7-|
|-(4)------||-----------------|-----------------|
|
| +H.         W                 W
|----------||-----------------|-----------------|
|----------||-----------------|-----------------|
|----------||-----------------|-----------------|
|-(6)------||-----------------|-----------------|
|----------||-----------------|-----------------|
|----------||-----------------|-----------------|


  Em7
  Gtr III
  H       E   Q.        q  H         S     +S   S  S
|--------------------|-------------------------------|
|-----------/14------|-12----------------------------|
|--------------------|--------------14b15r(14)p12----|
|-----------/11------|--9-------------------------14-|
|--------------------|-------------------------------|
|--------------------|-------------------------------|
|
| Q  E. S E   e  E E    Q  E. S E e  E          E
|----7--7-x---7----7-|-----7--7-x-7-------------7----|
|----8--8-x---8----8-|-----8--8-x-8-------------8----|
|----7--7-x---7----7-|-----7--7-x-7-------------7----|
|----x--x-x---x----x-|-----x--x-x-x-------------x----|
|----7--7-x---7----7-|-----7--7-x-7-------------7----|
|--------------------|-------------------------------|


  Em7
  W                  Q       E   S  S  +S   S  E  +S   S  E
|-----------------|------------------------------------------|
|-----------------|-------------15---------15---------15-----|
|-----------------|-14b16===14-----14-(14)----14-(14)----14--|
|-----------------|------------------------------------------|
|-----------------|------------------------------------------|
|-----------------|------------------------------------------|
|
| Q  E. S E e E E    Q       E.     S   E      e   E      E
|----7--7-x-7---7-|----------7------7---x------7----------7--|
|----8--8-x-8---8-|----------8------8---x------8----------8--|
|----7--7-x-7---7-|----------7------7---x------7----------7--|
|----x--x-x-x---x-|----------x------x---x------x----------x--|
|----7--7-x-7---7-|----------7------7---x------7----------7--|
|-----------------|------------------------------------------|


  Em7
                                               ~~              ~~~
   S  S  S  S  S   S  S  S   S      +S   S  S  Q      S  S  E  H         E  E
|--------------------------------------------------|--------------------------|
|-15----15----15-----------------------------------|--------------------------|
|----14----14-----14-14-14r-14pb15r(14)p12----12---|-----------------------12-|
|------------------------------------------14------|-14p12----12--------14----|
|--------------------------------------------------|-------14-----------------|
|--------------------------------------------------|--------------------------|
|
|  Q           E.        S   E           e     E E    Q        E. S E e  E  E
|--------------7---------7---x-----------7-------7-|-----------7--7-x-7-----7-|
|--------------8---------8---x-----------8-------8-|-----------8--8-x-8-----8-|
|--------------7---------7---x-----------7-------7-|-----------7--7-x-7-----7-|
|--------------x---------x---x-----------x-------x-|-----------x--x-x-x-----x-|
|--------------7---------7---x-----------7-------7-|-----------7--7-x-7-----7-|
|--------------------------------------------------|--------------------------|


  Em7
            ~~~~~~~~~~~~~~~~~~~~
   Q  Q     H              +Q     S     +E   S  Q    E  E
|----------17b19========|=(17)r--17b19r(17)p15-------------|
|-----------------------|----------------------17---15-----|
|-----------------------|------------------------------16--|
|-14--------------------|----------------------------------|
|-----------------------|----------------------------------|
|-----------------------|----------------------------------|
|
|  Q  E. S  E     e E E     Q     E.         S  E e  E  E
|-----7--7--x-----7---7-|---------7----------7--x-7-----7--|
|-----8--8--x-----8---8-|---------8----------8--x-8-----8--|
|-----7--7--x-----7---7-|---------7----------7--x-7-----7--|
|-----x--x--x-----x---x-|---------x----------x--x-x-----x--|
|-----7--7--x-----7---7-|---------7----------7--x-7-----7--|
|-----------------------|----------------------------------|


  Em7
  H       E  Q        +E     +E   +E   +E.      +S   +H
|-------------------------|-----------------------------------|
|-------------------------|-----------------------------------|
|-----------12b15====(12)-|-(12)r(12)-(12)b14==(12)r(12)------|
|-------------------------|-----------------------------------|
|-------------------------|-----------------------------------|
|-------------------------|-----------------------------------|
|
| Q  E. S E  e     E   E      E    E    E.       S    E  E Q
|----7--7-x--7---------7--|---x----x----7--------7----x-------|
|----8--8-x--8---------8--|---x----x----8--------8----x-------|
|----7--7-x--7---------7--|---x----x----7--------7----x--7-7--|
|----x--x-x--x---------x--|---x----x----x--------x----x--5-5--|
|----7--7-x--7---------7--|---x----x----7--------7----x-------|
|-------------------------|-----------------------------------|


  Em7
  W                 W
|-----------------|-----------------|
|-----------------|-----------------|
|-----------------|-----------------|
|-----------------|-----------------|
|-----------------|-----------------|
|-----------------|-----------------|
|
| Q  E E E. S E E   Q  E E E. S E E
|--------7--7-x-x-|----x-x-7--7-x-x-|
|--------8--8-x-x-|----x-x-8--8-x-x-|
|----x-x-7--7-x-x-|----x-x-7--7-x-x-|
|----x-x-x--x-x-x-|----x-x-x--x-x-x-|
|--------7--7-x-x-|----x-x-7--7-x-x-|
|-----------------|-----------------|


  Em7
                         ~~~~~~~~~~~~~~
  H      Q     Q         H         +E   S  S  E  E
|---------------------|-12--------(12)-------------|
|-------------15b17---|----------------15p12-------|
|---------------------|----------------------12----|
|---------------------|-------------------------12-|
|---------------------|----------------------------|
|---------------------|----------------------------|
|
| Q  E E E. S  E    E    E E E. S   E   E     Q
|----x-x-7--7--x----x-|--x-x-7--7---x--------------|
|----x-x-8--8--x----x-|--x-x-8--8---x--------------|
|----x-x-7--7--x----x-|--x-x-7--7---x---7-----7----|
|----x-x-x--x--x----x-|--x-x-x--x---x---5-----5----|
|----x-x-7--7--x----x-|--x-x-7--7---x--------------|
|---------------------|----------------------------|


  Em7
   q  Q   H          E  S  S  S  S  S  S  E   E   S  E    S
|------------------|------------------------------------------|
|------------------|---------------------12--14-----15---15---|
|------------------|------------11-12-14----------------------|
|-14---------------|---11-12-14-------------------------------|
|------------------|------------------------------------------|
|------------------|------------------------------------------|
|
|  Q  E E E. S E E   Q        E     E     E.    S E    E
|---------7--7-x-x-|----------x-----x-----7-----7-x----x------|
|---------8--8-x-x-|----------x-----x-----8-----8-x----x------|
|-----x-x-7--7-x-x-|----------x-----x-----7-----7-x----x------|
|-----x-x-x--x-x-x-|----------x-----x-----x-----x-x----x------|
|---------7--7-x-x-|----------x-----x-----7-----7-x----x------|
|------------------|------------------------------------------|


  Em7
    ~~~~               ~~~~~~~~~~
   +Q    +S   S  S  S  Q     +E   S  S   H        Q    Q
|--------------------------------------|------------------|
|-(15)--(15)-14p12----12----(12)-------|------------------|
|------------------14------------14p12-|------------------|
|--------------------------------------|--------------12--|
|--------------------------------------|------------------|
|--------------------------------------|------------------|
|
|   Q     E      E     E. S   E   E      E E E. S E E  Q
|---------x------x-----7--7---x---x----|-x-x-7--7-x-------|
|---------x------x-----8--8---x---x----|-x-x-8--8-x-------|
|---------x------x-----7--7---x---x----|-x-x-7--7-x-7--7--|
|---------x------x-----x--x---x---x----|-x-x-x--x-x-5--5--|
|---------x------x-----7--7---x---x----|-x-x-7--7-x-------|
|--------------------------------------|------------------|


  Em7
             TP          TP  TP   TP  TP
  H      E   Q.          Q   Q    E   Q.
|---------------------|-------------------------|
|---------------------|-------------------------|
|---------------------|-------------------------|
|-----------12--------|-12--12---12--14---------|
|---------------------|-------------------------|
|---------------------|-------------------------|
|
| Q  E E E.     S E E    Q   E E  E.     S E E
|--------7------7-x-x-|------x-x--7------7-x-x--|
|--------8------8-x-x-|------x-x--8------8-x-x--|
|----x-x-7------7-x-x-|------x-x--7------7-x-x--|
|----x-x-x------x-x-x-|------x-x--x------x-x-x--|
|--------7------7-x-x-|------x-x--7------7-x-x--|
|---------------------|-------------------------|


  Em7                                  Em7
  Q   Q   H          W                 E  E  Q   H          W
|------------------|-----------------|---19\--------------|-----------------*|
|------------------|-----------------|---20\--------------|-----------------*|
|------------------|-----------------|--------------------|-----------------*|
|----12------------|-----------------|--------------------|-----------------*|
|------------------|-----------------|--------------------|-----------------*|
|------------------|-----------------|--------------------|-----------------*|
|
| Q   E E E. S E E   E E E. S E E Q    Q     E E E. S E E   Q  E E E. S E E
|-----x-x-7--7-x-x-|-x-x-7--7-x------|-----------7--7-x-x-|----x-x-7--7-x-x-*|
|-----x-x-8--8-x-x-|-x-x-8--8-x------|-----------8--8-x-x-|----x-x-8--8-x-x-*|
|-----x-x-7--7-x-x-|-x-x-7--7-x-7-7--|-------x-x-7--7-x-x-|----x-x-7--7-x-x-*|
|-----x-x-x--x-x-x-|-x-x-x--x-x-5-5--|-------x-x-x--x-x-x-|----x-x-x--x-x-x-*|
|-----x-x-7--7-x-x-|-x-x-7--7-x------|-----------7--7-x-x-|----x-x-7--7-x-x-*|
|------------------|-----------------|--------------------|-----------------*|






Duration Legend
---------------
W - whole; H - half; Q - quarter; E - 8th; S - 16th; T - 32nd; X - 64th; a - acciaccatura
+ - note tied to previous; . - note dotted; .. - note double dotted
Uncapitalized letters represent notes that are staccato (1/2 duration)
Irregular groupings are notated above the duration line
Duration letters will always appear directly above the note/fret number it represents the
duration for.  Duration letters with no fret number below them represent rests.  Multi-
bar rests are notated in the form Wxn, where n is the number of bars to rest for.  Low
melody durations appear below the staff

Tablature Legend
----------------
 h   - hammer-on
 p   - pull-off
 b   - bend
 pb  - pre-bend
 r   - bend release (if no number after the r, then release immediately)
 /\  - slide into or out of (from/to "nowhere")
 s   - legato slide
 S   - shift slide
 - natural harmonic
[n]  - artificial harmonic
n(n) - tapped harmonic
 ~   - vibrato
 tr  - trill
 T   - tap
 TP  - trem. picking
 PM  - palm muting
\n/  - tremolo bar dip; n = amount to dip
 \n  - tremolo bar down
 n/  - tremolo bar up
/n\  - tremolo bar inverted dip
 =   - hold bend; also acts as connecting device for hammers/pulls
 <> - volume swell (louder/softer)
 x   - on rhythm slash represents muted slash
 o   - on rhythm slash represents single note slash

Misc Legend
-----------
 |  - bar
||  - double bar
||o - repeat start
o|| - repeat end
*|  - double bar (ending)
 :  - bar (freetime)
 $  - Segno
 &  - Coda
Tempo markers -  = BPM(8/16=s8/s16), where s8 = swing 8ths, s16 = swing 16ths


Suggest correction
Give kudos to tab author, rate the tab!
1 2 3 4 5
comments
print report bad tab
guest
You may want to rate the tab now too:
select rating
Wanna post a correction for this tab? Suggest correction