Oops, an error
Loading. Please wait.

Kid Charlemagne Bass Tab

version 1
version 1

Whole song

Interactive

6,744 views 6 this week
2 commentsread comments
1 2 3 4 5
worth learning
x 3
add to favorites
launch autoscroll
font size
0
reset
guitar tuner
Autoscroll
slow
fast
+/-
esc
set tempo
stop
Help us to improve Ultimate-Guitar.com Take our survey!
×
Author
Difficulty
advanced
This is a great song with a great bass line. Enjoy. 
By: Nicholas C., 
Bass Guitar for Spherical: www.tekcities.com/sphericalband

Verse 1: 

G|----------------|-------0----0-0-|----------------|----------------||
D|----------------|----------2-----|-3-3-3-0--------|---0------------||
A|-0-----0----0---|----------------|----------3-0---|-0----0---------||
E|---0-2---0------|-3-0-5----------|----------------|----------------||

G|----------------|----------------||
D|-2-2-2-0--------|-------0-3/12---|| Repeat
A|---------3-0----|-0-3/5----------||
E|----------------|----------------||

Bridge

G|----------------|-2-2-2-----2--0-|0---0-----------|----------------||
D|-3-0-3-5-2-5----|-------2-2------|--0-------------|----------------||
A|----------------|----------------|----------------|----------------||
E|----------------|----------------|-------1--3--1--|-0-5-2-0--0-----||
   s s s p p p p    s s s p p p p
G|----------------|----------------||
D|-------8-8-8-10-|-------8-8-8-10-||
A|---x-x----------|---x-x----------||
E|-3--------------|-3--------------||

Then Back To The Verse:

G|----------------|-------0----0-0-|----------------|----------------||
D|----------------|----------2-----|-3-3-3-0--------|---0------------||
A|-0-----0----0---|----------------|----------3-0---|-0----0---------||
E|---0-2---0------|-3-0-5----------|----------------|----------------||

G|----------------|----------------||
D|-2-2-2-0--------|-------0-3/12---|| Repeat
A|---------3-0----|-0-3/5----------||
E|----------------|----------------||

Chorus: This is almost the same as the bridge only extended

G|----------------|-2-2-2-----2--0-|0---0-----------|----------------||
D|-3-0-3-5-2-5----|-------2-2------|--0-------------|----------------||
A|----------------|----------------|----------------|----------------||
E|----------------|----------------|-------1--3--1--|-0-5-2-0--0-----||

G|----------------|------------7---|----------------|------------7---||
D|-0-x-0-3/5------|-3-x-3-5/7------|-0-x-0-3/5------|--3-x-3-5/7-----||
A|----------------|----------------|----------------|----------------||
E|----------------|----------------|----------------|----------------||

G|----------------|-----------7----|-----------0-0--|-----0----------||
D|-0-x-0-3/5------|-3-x-3-5/7------|-3-3-----3------|-0/2------------||
A|----------------|----------------|-----1/3--------|----------------||
E|----------------|----------------|----------------|----------------||

G|----------------|----------------|----------------|----------------||
D|----------------|----------------|----------------|----------------||
A|-0/3-3-3-0/3----|----------------|-0/3-3-3-0/3----|----------------||
E|----------------|-0-1-2-3--------|----------------|-0-1-2-3--------||

Then Another Verse: Yes i need to put this again becuase there is some 
variations

G|----------------|-------0----0-0-|----------------|----------------||
D|----------------|----------2-----|-3-3-3-0--------|---0------------||
A|-0-----0----0---|----------------|----------3-0---|-0----0---------||
E|---0-2---0------|-3-0-5----------|----------------|----------------||

G|-3-3------------|----------------||
D|-----3-0-1-3----|----------------||
A|----------------|-3-0-------0----||
E|----------------|------3-0-------||

Then For Bridge 2 YAY!:

G|----------------|-2------2-------|---0------------|----------------||
D|-3-3-0-0-3/5-2-5|---2-2----0-2---|-0---3----------|-2-7-3-2-0------||
A|----------------|----------------|----------------|----------------||
E|----------------|----------------|----------------|----------------||

Then right into Chorus 2:

G|-------0-----0-9|-------0---0---9|------0----0---9|-------------4--||
D|-0-0/2---2-2--5-|-0-0/2--2-2--5--|-0-0/2--2-2--5--|-3-3-7-3-5-5---0||
A|----------------|----------------|----------------|----------------||
E|----------------|----------------|----------------|----------------||

G|-5--------------|----------------|-5--------------|----------------||
D|---8-1-2-2-3-3--|-5-5-8----------|---8-1-2-2-3-3--|-5-5-8----------||
A|----------------|----------------|----------------|----------------||
E|----------------|----------------|----------------|----------------||

Solo:

G|----------------|----------------|----------------|----------------||
D|-2-2---0-2-3-5--|----------------|----------------|-------5----5---||
A|-----0----------|-0-3-0----------|----------------|---0-3----0-----||
E|----------------|----------------|-7-7-0-0-2-4----|-5--------------||

G|----------------|----------------|----------------|----------------||
D|-3---3-2---2----|-0--------------|----------------|----------------||
A|---3-----3------|---0------------|----------------|-0h5-5-5-5-5-5--||
E|----------------|----------------|-0-0-2-3-3-2-0--|----------------||

G|----------------|----------------|----------------|----------------||
D|----------------|-2-2------------|----------------|-----5-5-5---5--||
A|-3-3-3-2---3----|----------------|-0-0-0-0-0-0----|-----------5----||
E|---------0------|----------------|----------------|-3-3------------||

G|----------------|----------------|----------------|----------------||
D|-3-3-3----------|-------1-3-3-1--|-3-3---3-5-5---5|-7-7---7-5-5---5||
A|-------3-0-0-1--|-1-1/3---------1|-----3-------5--|-----7-------5--||
E|----------------|----------------|----------------|----------------||

G|----------------|----------------|----------------|-------------------||
D|-0-5-3----------|-2-7-3-2-0------|--13--13--13--13|--13--13--13--13-13||
A|----------------|----------------|13--13--13--13--|13--13--13--13-----||
E|----------------|----------------|----------------|-------------------||
                   Chorus:
G|----------------|----------------|-------0---0-0--|----------------||
D|--13--13--13--13|-13-------------|---------2------|-3-3-3-0--------||
A|13--13--13--13--|---0-----0---0--|----------------|---------3-0----||
E|----------------|-----0-2---0----|-3-0-5----------|----------------||

G|--0---3-3-------|----------------|----------------|-2-----2-0------||
D|-0-0------3-0-1-|-3--------------|-3-0-0-3/5-2-5--|---2-2-----2----||
A|----------------|---3-0-----0----|----------------|----------------||
E|----------------|-------3-0------|----------------|----------------||

G|---0------------|-----0---0------|-----0---0------|------------4-0-||
D|-0---3-2-7-3-2-0|0-0/2-2-2-5-9---|0-0/2-2-2-5-9---|-3-3-7-3-5-5----||
A|----------------|----------------|----------------|----------------||
E|----------------|----------------|----------------|----------------||

G|-5--------------|----5-----------|-------||
D|--8-1-2-2-3-3-5-|5-8--8-1-2-2-3-3|5-5-8--||
A|----------------|----------------|-------||
E|----------------|----------------|-------||

Solo 2: (By This Time I've Run out of comments)

G|----------------|----------------|----------------|----------------||
D|-3-3---3--2-2---|-------2-------2|-3-3--2-2-------|-------2-------2||
A|-----3--------3-|-3-2-3---3--3-5-|----3-----0-----|-3-2-3---3-3-5--||
E|----------------|----------------|----------------|----------------||

Just Repeat This until the end of the solo.

So That about wraps up another tab. For questions/comments e-mail me at
GuitarMan2737@aim.com- The Bass Dude
Suggest correction
What's this?
You can suggest a correction to this tab. Community and Mods will review your correction and vote to approve or reject it.
comments
We did not receive enough feedback on this tab! Please rate:
print report bad tab
1 2 3 4 5
2 comments total.
+3 reply
amvandenberg 74 wrote on September 21 2007, 04:23 pm

This tab is off by far... I'm working on a pretty accurate version stay tuned

0 reply
R2D4 95 wrote on April 1 2011, 03:19 pm

way off. 5 had to figure this one out ( took a week ). just posted new tab.

guest
You may want to rate the tab now too:
select rating
Please do not post tabs as comments. Select "correction" instead!