Oops, an error
Loading. Please wait.

King Of The World bass

488 views 1 this week
no commentswrite comment
1 2 3 4 5
2 more votes to show rating
add to favorites
×
Save as Personal and add changes to this tab that will be seen only by you. Learn more ›
×
You can save this tab as Personal to edit and correct it or add notes. All changes will be seen only by you. Learn more »
launch autoscroll
font size
0
reset
guitar tuner
edit
Autoscroll
slow
fast
+/-
esc
set tempo
stop
Author
Difficulty
                                 King Of The World
                                     Steely Dan

Bass                                                              Donald Fagen
                                                                 Walter Becker
As played by Walter Becker

Intro

6 Bars Rest

||--9-------11------|-13--------------|-9-------11------|-13---------------||
||o-10------12------|-14--------------|-10------12------|-14--------------o||
||o-----------------|-----------------|-----------------|-----------------o||
||------------------|-----------------|-----------------|------------------||
    H       H         W                 H       H         W

Verse 1

|-----------------|-----------------|-----------------|-----------------|
|-----------------|-2---------5-----|-----------------|-2---------5-----|
|-3-----3-5-----5-|-------------2---|-3-----3-5-----5-|-------------2---|
|-----------------|---------------3-|-----------------|---------------3-|
  E Q   E E Q   E   E E Q  Q  S S E   E Q   E E Q   E   E E Q  Q  S S E 

|-----------------|-----------------|-----------------|-------------------|
|-----------------|-2---------5-----|-----------------|-2/5-2-5-5-2---2-0-|
|-3-----3-5-----5-|-------------2---|-3-----3-5-----5-|-------------------|
|-----------------|---------------3-|-----------------|-------------0-----|
  E Q   E E Q   E   E E Q  Q  S S E   E Q   E E Q   E   E E E S S E E E E


|-----------------|-----------------|-----------------|-----------------|
|-----------------|-2---------5-----|-----------------|-2---------5-----|
|-3-----3-5-----5-|-------------2---|-3-----3-5-----5-|-------------2---|
|-----------------|---------------3-|-----------------|---------------3-|
  E Q   E E Q   E   E E Q  Q  S S E   E Q   E E Q   E   E E Q  Q  S S E 

|-----------------|-----------------|-----------------|-------------------|
|-----------------|-2---------5-----|-----------------|-2-2-2-2-2---------|
|-3-----3-5-----5-|-------------2---|-3-----3-5-----5-|-------------------|
|-----------------|---------------3-|-----------------|-----------0-2-4-5-|
  E Q   E E Q   E   E E Q  Q  S S E   E Q   E E Q   E   E E E S S E E E E

Chorus 1

|-4---4-----4---4---|-----------2---2---|-----------------|-------------------|
|-------------------|-------------------|-----------------|-------------------|
|-------2-2---2---1-|-0---0-0-0---0---2-|-3-----------2-3-|-5---5-5-5-0-5-2-5-|
|-------------------|-------------------|---------3-------|-------------------|
  Q   E S S E E E E   Q   E S S E E E E   H       Q   E E   Q   E S S E E E E

                                          3/4           4/4
|-----------4---4---|-----------2-------|-------------|-----------------|
|-------------------|-------------2-----|-2-----5-----|-----------------|
|-2---2-2-2---2---1-|-0---0-0-0-----0-2-|-------------|-----------------|
|-------------------|-------------------|-------------|-5-----3-5-----3-|
  Q   E S S E E E E   Q   E S S E E E E   Q.    Q.      Q.    E Q.    E

|-------------------|
|-------------------|
|-----------------2-|
|-5-----3-5-5-3-5---|
  Q.    E S S E E E

Verse 2

|-----------------|-----------------|-----------------|-----------------|
|-----------------|-2-----0-2-2---0-|-----------------|-2-2---0-2-2---0-|
|-3-3---3-5-5---5-|-----2-------0---|-3-3---3-5-5---5-|-----2-------0---|
|-----3-------5---|-----------------|-----3-------5---|-----------------|
  E.S E E E E E E   Q   E E E E E E   E.S E E E E E E   E.S E E E E E E

|-----------------|-----------------|-----------------|-------------------|
|-----------------|-2-----0-2-2---0-|-----------------|-2-2-2-2-2---------|
|-3-3---3-5-5---5-|-----2-------0---|-3-3---3-5-5---5-|-------------------|
|-----3-------5---|-----------------|-----3-------5---|-----------0-2-4-5-|
  E.S E E E E E E   Q   E.S E E E E   E.S E E E E E E   E E E S S E E E E

|-----------------|-----------------|-----------------|-------------------|
|-----------------|-2-----0-2-2---0-|-----------------|-2-2---0-2-5-4-2-0-|
|-3-3---3-5-5---5-|-----2-------0---|-3-3---3-5-5---5-|-----2-------------|
|-----3-------5---|-----------------|-----3-------5---|-------------------|
  E.S E E E E E E   Q   E E E E E E   E.S E E E E E E   E.S E E E S S E E

|-----------------|-----------------|-----------------|-------------------|
|-----------------|-2-----0-2-2---0-|-----------------|-2-2-2-2-2---------|
|-3-3---3-5-5---5-|-----2-------0---|-3-3---3-5-5---5-|-------------------|
|-----3-------5---|-----------------|-----3-------5---|-----------0-2-4-5-|
  E.S E E E E E E   Q   E E E E E E   E.S E E E E E E   E E E S S E E E E

Chorus 2

|-----------4---4---|-----------2-------|-------------------|-------------------|
|-------------------|-------------2-----|-------------------|-------------------|
|-2---2-2-2---2---1-|-0---0-0-0-----0-2-|-3-----------2-3-3-|-5---5-5-5-0-5-2-5-|
|-------------------|-------------------|---------3---------|-------------------|
  Q   E S S E E E E   Q   E S S E E E E   H       Q   E S S   Q   E S S E E E E

                                          3/4           4/4
|-----4-----4---4---|-----------2-------|-------------|-----------------|
|-------------------|-------------2-----|-2-----5-----|-7-----5-7-----5-|
|-2-----2-2---2---1-|-0---0-0-0-----0-2-|-------------|-----------------|
|-------------------|-------------------|-------------|-----------------|
  Q   E S S E E E E   Q   E S S E E E E   Q.    Q.      Q.    E Q.    E

|-------------------|
|-------------------|
|-----------------2-|
|-5-----3-5-3-3-5---|
  Q.    E E S S E E

Keyboard Solo

|-----------------|---------------------|-----------------|-----5---------------|
|-----------------|-2-2-2---0-0-2-2---0-|---5-------7-----|---5---5-5---5-------|
|-3-3-----5-5---5-|-------2---------0---|-3-------5-----5-|-3---------3---3---3-|
|-----3-------5---|---------------------|-----3-5-----5---|-----------------3---|
  E.S Q   E E E E   E S S E S S E E E E   E E E E E E E E   E E E S S S S E E E

|-----------------|-----------------|-------------------|---------------------|
|-3-----3-5-5-----|-1-----1-3-3---3-|-------------------|-3---------0-0-2-3---|
|-----3-------5---|-----1-------3---|-4-4---4-4-6-----6-|---0-1-3-3---------0-|
|---------------3-|-----------------|-----4-------3-6---|---------------------|
  Q   E E E E E E   Q   E.S E E E E   E E E S S E E E E   E E E S S S S E E E

|-----------------|-------------------|-----------------|-----5-------------|
|-----------------|-2-2---0-0-2-2---0-|-------------7---|---5---5---5-------|
|-3-3-----5-5---5-|-----2---------0---|-3-3-----5-5---5-|-3-------3---3---3-|
|-----3-------5---|-------------------|-----3-5---------|---------------3---|
  E.S Q   E E E E   E E E S S E E E E   E E E E E E E E   E E E S E S E E E

|-----------------|-----------------|-----------------|-------------------|
|-3-----3-5-5-----|-1-----1-3-3-----|-----------------|-3-----------------|
|-----3-------5---|-----1-------1-3-|-4-4---4-6-6---6-|---0-1-2-3-3-------|
|---------------3-|-----------------|-----4-------6---|-------------0-1-3-|
  Q   E E E E E E   Q   E E E E E E   E.S E E E E E E   E E E S E S E E E

|-----------------|-----------------|-----------------|-------------------|
|-5-------2-------|-5-------2-------|-5-------2-------|-5-------2-------2-|
|-----------------|-----------------|-----------------|-----------2-2-5---|
|-----------------|-----------------|-----------------|-------------------|
  H       H         H       H         H       H         H       E S S E E

|-----------------|-----------------|-----------------|-----------------|
|-----------------|-----------------|-----------------|-----------------|
|-----------------|-----------------|-----------------|-----------------|
|-3-------0-------|-3-------0-------|-3-------0-------|-3-------0-2-3-4-|
  H       H         H       H         H       H         H       E E E E

Bridge

|-----------------|-----------------|-----------------|-----------------|
|-----------------|---4---5---9-----|-7-------------9-|(9)--------------|
|---------------7-|(7)------------7-|-----------------|-------7---7-7\--|
|-5---------------|-----------------|-----------------|---7-------------|
  H.          E E   E Q   Q   Q   E   H.          E E   E Q   Q   E Q

|-----------------|-----------4-----|-5---------------|-------------------|
|-----------------|---4---5---------|---------5-------|-------------------|
|---------------7-|(7)--------------|-----------------|-------------------|
|-5---------------|-----------------|-----------------|-5-----5-5-5-5-0-3-|
  H.          E E   E Q   Q   Q.      H       H         Q.    S S E E E E

|---------------------|
|---------------------|
|---------------------|
|-5---3-3-4-5-0-0-3-5-|
  Q   S S E E S S E E

Verse 3

|-----------------|-----------------|-----------------|-----------------|
|-----------------|-2-----0-2-2---0-|-----------------|-2-2---0-2-2---0-|
|-3-3---3-5-5---5-|-----2-------0---|-3-3---3-5-5---5-|-----2-------0---|
|-----3-------5---|-----------------|-----3-------5---|-----------------|
  E.S E E E E E E   Q   E E E E E E   E.S E E E E E E   E.S E E E E E E

|-----------------|-----------------|-----------------|-------------------|
|-----------------|-2-----0-2-2---0-|-----------------|-2-2-2-2-2---------|
|-3-3---3-5-5---5-|-----2-------0---|-3-3---3-5-5---5-|-----------------0-|
|-----3-------5---|-----------------|-----3-------5---|-----------0-2-4---|
  E.S E E E E E E   Q   E.S E E E E   E.S E E E E E E   E E E S S E E E E

|-----------------|-----------------|-----------------|-----------------|
|-----------------|-2-----0-2-2---0-|-----------------|-2-----0-2-2---0-|
|-3-3---3-5-5---5-|-----2-------0---|-3-3---3-5-5---5-|-----2-------0---|
|-----3-------5---|-----------------|-----3-------5---|-----------------|
  E.S E E E E E E   Q   E E E E E E   E.S E E E E E E   E.S E E E E E E

|-----------------|-----------------|-----------------|-------------------|
|-----------------|-2-----0-2-2---0-|-----------------|-2-2-2-2-2---------|
|-3-3---3-5-5---5-|-----2-------0---|-3-3---3-5-5---5-|-------------------|
|-----3-------5---|-----------------|-----3-------5---|-----------0-2-4-5-|
  E.S E E E E E E   Q   E E E E E E   E.S E E E E E E   E E E S S E E E E

Chorus 3

|-----------4---4---|-------------2-----|-------------------|-------------------|
|-------------------|-------------------|-------------5-----|-------------------|
|-2---2-2-2---2---1-|-0---0-0-0-0---0-2-|-3-------------3-3-|-5---5-5-5-0-5-2-5-|
|-------------------|-------------------|---------3---------|-------------------|
  Q   E S S E E E E   Q   E S S E E E E   H       Q   E S S   Q   E S S E E E E

                                          3/4
|-----4-----4---4---|-------------------|-------------|-------------|
|-------------------|-------------2-----|-2-----5-----|-------------|
|-2-----2-2---2---1-|-0---0-0-0-0---0-2-|-------------|-------------|
|-------------------|-------------------|-------------|-0-----3-----|
  Q   E S S E E E E   Q   E S S E E E E   Q.    Q.      Q.    Q.    

  4/4
|-----------------|-------------------|
|-7-----5-7-----5-|-------------------|
|-----------------|-----------------2-|
|-----------------|-5-----3-5-3-3-5---|
  Q.    E Q.    E   Q.    E E S S E E

Outro

|-----------------|-----------------|-----------------|-----5-----------|
|-----------------|-2-2---0-2-2---0-|-----------------|---5---5---5-----|
|-3-3---3-5-5---5-|-----2-------0---|-3-3-----5-5---5-|-3-------3-----3-|
|-----3-------5---|-----------------|-----3-5-----5---|-------------3---|
  E.S E E E E E E   E.S E.S E E E E   E E E E E E E E   E.S E.S E E E E

|-----------------|-----------------|-------------------|-----10-----------------|
|-3-3---3-5-5---5-|-1-----1-3-3---3-|-------------------|---10--10----10------10-|
|-----3-------5---|-----1-------3---|-4-4---4-4-6-6---6-|-8-------8-8---8---8----|
|-----------------|-----------------|-----4---------6---|-----------------8------|
  E.S E E E E E E   Q   E.S E E E E   E E E S S E E E E   E E E S S S S S S E E

|-----------------|-----------------|-----------------|-----------5-----5---|
|-----------------|-2-2---0---------|-----------------|---------------------|
|-3-3---3-5-5---5-|-----2---------5-|-3-3-----5-5---5-|-3-3-3-3-3---3-3---3-|
|-----3-------5---|---------0-0-4---|-----3-5-----5---|---------------------|
  E.S E E E E E E   E.S E.S E E E E   E E E E E E E E   E.S E.S S S E S S E

|-----------------|-----------------|-------------------|-------------------|
|-3-3---3-5-5---5-|-1-----1-3-3---3-|-------------------|-3-----------------|
|-----3-------5---|-----1-------3---|-4-4---4-4-6-6---6-|-------------0-1-2-|
|-----------------|-----------------|-----4---------6---|---0-1-1-3-3-------|
  E.S E E E E E E   Q   E.S E E E E   E E E S S E E E E   E E E S E S E E E

|-----------------|-------------------|-----------------|-----5-------------|
|-----------------|-2-2---0-2-2---0---|-----------------|---5---5---5-------|
|-3-3---3-5-5---5-|-----2-------0---0-|-3-3---3-5-5---5-|-3-------3---3---3-|
|-----3-------5---|-------------------|-----3-------5---|---------------3---|
  E.S E E E E E E   E.S E S E S E E E   E E E E E E E E   E.S E S E S E E E

|-----------------|-----------------|-------------------|-----10------------|
|-3-3---3-5-5---5-|-1-----1-3-3---3-|-------------------|---10--10--10--10--|
|-----3-------5---|-----1-------3---|-4-4---4-4-6-6---6-|-8-------8---8---8-|
|-----------------|-----------------|-----4---------6---|-------------------|
  E.S E E E E E E   Q   E.S E E E E   E E E S S E E E E   E.S E S E S E E E

|-----------------|-----------------|-----------------|-----5-------------|
|-----------------|-2-2---0-2-2---2-|-----------------|---5---5---5-------|
|-3-3---3-5-5---5-|-----2-------2---|-3-3---3-5-5---5-|-3-------3---3---3-|
|-----3-------5---|-----------------|-----3-------5---|---------------3---|
  E.S E E E E E E   E.S E.S E E E E   E E E E E E E E   E.S E S E S E E E

|-----------------|-----------------|-------------------|-------------------|
|-3-3---3-5-5---5-|-1-----1-3-3---3-|-------------------|-------------1-2-3-|
|-----3-------5---|-----1-------3---|-4-4---4-4-6-6---6-|---0-2-3-0-0-------|
|-----------------|-----------------|-----4---------6---|-1-----------------|
  E.S E E E E E E   Q   E.S E E E E   E E E S S E E E E   E E E S E S E E E

|-----------------|-----9-----9-------|-----------------|-----5-------------|
|-----------------|---9---9-----9---9-|-----5-------7---|---5---5---5-------|
|-3-3---3-5-5---5-|-7-------7-----7---|-3-3---3-5-5---5-|-3-------3---3---3-|
|-----3-------5---|-------------------|-----------------|---------------3---|
  E.S E E E E E E   E.S E.S E S S E E   E E E E E E E E   E.S E S E S E E E

|-----------------|-----------------|-------------------|------------------||
|-3-3---3-5-5---5-|-1-----1-3-3---3-|-------------------|-3----------------||
|-----3-------5---|-----1-------3---|-4-4---4-4-6-6---6-|------------------||
|-----------------|-----------------|-----4---------6---|------------------||
  E.S E E E E E E   Q   E.S E E E E   E E E S S E E E E   W


Key to rhythm notations:

W - Whole Note/Semi-Brieve
H - Half Note/Minim
Q - Quarter Note/Crotchet       Q. - Dotted Quarter Note
E - Eight Note/Quaver           E. - Dotted Eight Note
S - Sixteenth Note/Semi-Quaver  S. - Dotted Sixteenth Note

            
            
Suggest correction
Creating personal tab
Creating personal tab
You can edit any tab online and save it as your Personal.

You can edit, replace or remove any tab part or add personal notes – all changes will be seen only by you.

Personal tabs can be accessed anytime from any device, even offline.
Learn more »
Give kudos to tab author, rate the tab!
1 2 3 4 5
comments
print report bad tab
guest
You may want to rate the tab now too:
select rating
Wanna post a correction for this tab? Suggest correction