Oops, an error
Loading. Please wait.

King Of The World Tab

version 1
version 1

Solo

  • This solo is really tricky, pay attention to the t... Show more

Whole song

70 views 1 this week
no commentswrite comment
1 2 3 4 5
2 more votes to show rating
add to favorites
launch autoscroll
font size
0
reset
how to read this tab
guitar tuner
×
Best way to learn
"King Of The World"
Autoscroll
slow
fast
+/-
esc
set tempo
stop
Author
Difficulty
advanced
About this tab version
This solo is really tricky, pay attention to the timing in the song. I'm still struggling trying to learn it. Was this info helpful? Yes No
[Outro Solo]

e|---------------------------------------------------------------------------|
B|---------------------------------------------------------------------------|
G|---------------------------------------------------------------------------|
D|-----------------5-------7-------------5-6---------------------------------|
A|----------5-6-7----7-6-5----5-6-7------------------------------------------|
E|---8-7-8-------------------------------------------------------------------|

e|---------------------------------------------------------------------------|
B|---------------------------------------------------------------------------|
G|---------------------------------------------------------------------------|
D|--9--7-(0)-6----5----5-4--7-5-------5--------------------------------------|
A|------------------7-------------6-7----------------------------------------|
E|---------------------------------------------------------------------------|

e|---------------------------------------------------------------------------|
B|---------------------------------------------------------------------------|
G|----------------------------5h7p5--5/7-----------7-----10---7-10---7-9-----|
D|------7-6-5-6-7---7-6-5-6-7------------9-8-7-8-9----8-----8----------------|
A|--(7)----------------------------------------------------------------------|
E|---------------------------------------------------------------------------|

e|---------------------------------------------------------------------------|
B|---------------------------------------------------------------------------|
G|--7--------------------------------------------5-7-6-5---------------------|
D|-----10--5-6--------5-8--5-6-7-----------5-6-7---------6-5-----------------|
A|--------------8-7-8------------8p7h8p7h8-----------------------------------|
E|---------------------------------------------------------------------------|

e|-----------------------------------------------------------7--8--10--12----|
B|-------------------------------------------------------7h8-----------------|
G|----------------7/9--------------------------------7/9---------------------|
D|--8h9-10-8h9-10-----8h9-10-8h9-10----8h9-10-8h9-10-------------------------|
A|----------------------------------10---------------------------------------|
E|---------------------------------------------------------------------------|

e|--10/12--8-------10/12--10--------8/10--6-----8/10--8----------------------|
B|-----------10--------------12-------------8-----------10-------------------|
G|--------------10--------------12------------8------------10----------------|
D|---------------------------------------------------------------------------|
A|---------------------------------------------------------------------------|
E|---------------------------------------------------------------------------|

e|--6/8--4-----6/8--6------------------------------10-9-8-7---7-10-9-8-7-----|
B|---------6----------8----6~------10p9p8-8h9h10-8----------8------------8-7-|
G|-----------6----------8----------------------------------------------------|
D|---------------------------------------------------------------------------|
A|---------------------------------------------------------------------------|
E|---------------------------------------------------------------------------|

e|----------------------------------12---10-9-8-7-7--7-7--7-7--7-7-----------|
B|-------------------------8-7--7/9----9----------7h88-8p77-7h88-8p7---------|
G|--9-8-7-----7-9-7--7-8-9---------------------------------------------------|
D|--------8-9----------------------------------------------------------------|
A|---------------------------------------------------------------------------|
E|---------------------------------------------------------------------------|

e|---------------------------------------------------------------------------|
B|------------------------8--------------------------------------------------|
G|--9-8-7-----7-9-8-7-8-9----------------------------------------------------|
D|--------8-9----------------------------------------------------------------|
A|---------------------------------------------------------------------------|
E|---------------------------------------------------------------------------|

Fades out.

************************************

| (n) Ghost note
| h   Hammer-on
| p   Pull-off
| /   Slide up
| \   Slide down
| ~   Vibrato

************************************
Suggest correction
Give kudos to tab author, rate the tab!
1 2 3 4 5
comments
print report bad tab
guest
You may want to rate the tab now too:
select rating
Wanna post a correction for this tab? Suggest correction