Oops, an error
Loading. Please wait.

Only A Fool Would Say That Bass Tab

version 1
version 1

Whole song

Interactive

1,350 views 1 this week
no commentswrite comment
1 2 3 4 5
please rate
add to favorites
launch autoscroll
font size
0
reset
guitar tuner
Tab Pro tools
  • play this tab
  • loop segment
  • change instrument
  • show fretboard
  • metronome
×
Best way to learn
"Only A Fool Would Say That"
Autoscroll
slow
fast
+/-
esc
set tempo
stop
Contributor
Only a Fool Would Say That
Steely Dan
Bass Tab
Bassist: Walter Becker

132BPM, 4/4

Intro

|-------7------|-------7------|-------5------|--------5-----|
|-----7---7----|-----7---7----|-----5---5----|-----5--------|
|-5----------0-|-5----------5-|-3----------0-|-3--------2-3-|
|--------------|--------------|--------------|--------------|

|-------7-------|-------7------|-------5------|------|
|-----7---7-----|-----7---7----|-----5---5----|------|
|-5-------------|-5----------5-|-3----------0-|-3----|
|-----------7-8-|--------------|--------------|------|

Verse

|-----7-7-----|-----7-7-----|-----5-5-----|-----5-5------|
|-------------|-------------|-------------|--------------|
|-5---------5-|-5---------5-|-3---------3-|-3-------02h3-|
|-------------|-------------|-------------|--------------|

|-----7-7-----|-----7-7-----|-----5-5-----|-----5-5------|
|-------------|-------------|-------------|--------------|
|-5---------5-|-5---------5-|-3---------3-|-3-------03-2-|
|-------------|-------------|-------------|--------------|

|-------------|--------------|-------------|----------7---|
|-------------|-3---3-3-3----|-2---2-2-----|------------7-|
|-----------3-|------------2-|-------------|-5---5-5-x----|
|-5---5-5-----|--------------|-----------5-|--------------|

|-------------|--------------|-------------|--------------|
|-------------|--------------|-------------|-7---7-x5-----|
|-5---5-5---5-|-5---5-5-x5-7-|-----------7-|----------7-6-|
|-------------|--------------|-5---5-5-----|--------------|

Chorus

|-------x-------|-------x------|---------------|---------------|
|-----7---7-----|-----7---7----|-7-----7-7---7-|-5-----5-5---5-|
|-5-------------|-5------------|---------------|---------------|
|-----------7-8-|------------5-|-----5-----5---|-----3-----3---|

|--------------|--------------|--------------|------|
|-4---4--4---2-|-3---3--3-2---|--------2-----|------|
|----------5---|------------5-|-3---3--------|-3----|
|--------------|--------------|----------3-5-|------|

Verse

|-----7-7-----|-----7-7-----|-----5-5-----|-----5-5------|
|-------------|-------------|-------------|--------------|
|-5---------5-|-5---------5-|-3---------3-|-3--------0-3-|
|-------------|-------------|-------------|--------------|

|-----7-7-----|-----7-7-----|-----5-5-----|-----5-5------|
|-------------|-------------|-------------|--------------|
|-5---------5-|-5---------5-|-3---------3-|-3-------03-2-|
|-------------|-------------|-------------|--------------|

|-------------|-------------|-------------|-------------|
|-------------|-------------|-2---2-2---2-|-------------|
|-------------|-----------2-|-------------|-5---5-5---5-|
|-5---5-5---3-|-1---1-1-----|-------------|-------------|

|-------------|-------------|-------------|--------------|
|-------------|-------------|-7-----7-----|-7-----7------|
|-5---5-5---5-|-5---5-5---7-|-----7-----7-|-----7--------|
|-------------|-------------|-------------|----------7-8-|

Chorus

|-------7-------|-------7------|--------------|--------------|
|-----7---x-----|-----7---7----|-------7------|-------5-5--5-|
|-5-------------|-5---------5--|--------------|--------------|
|-----------7-8-|--------------|-5---5---5--5-|-3---3--------|

|-------------|-------------|---------------|---------------|
|-4---4-4---4-|-3---3-3-----|---------------|---------------|
|-------------|-------------|-3---3-3-x-----|-3---3-x-----3-|
|-------------|-----------3-|-----------3-5-|---------3-5---|

Bridge

|-------------|-------------|-------------|--------------|
|-------------|-6---6-6---6-|-7---7-5---5-|-3---3-3------|
|-7---7-7---7-|-------------|-------------|---------02-3-|
|-------------|-------------|-------------|--------------|

|-----------|--------------|--------------|-------------|
|-----------|-7------------|----------2-3-|-5--5--------|
|-5----7----|----------2h3-|-5---5-5------|------5------|
|-----------|-----5-5------|--------------|-------3---3-|

|-------5------|-------5------|-------7------|-------7-----|
|-----5---5--5-|-----5---x-5--|-----7---7--7-|-----7---7---|
|-3------------|-3------------|-5------------|-5-----------|
|--------------|--------------|--------------|-------------|

Solo

|------5--9--14-|-(14)--------------|------7---7----|------7---7----|
|--5-7----------|------14--12--7----|---------------|----x---x------|
|---------------|-----------------7p|=5--5---5----7p|=5-----------5-|
|---------------|-------------------|---------------|---------------|

|---------------|---------------|--------------|-------------|
|---------------|---------------|-2---2--------|-------------|
|---------------|-------2x--3-5-|--------0-3-0-|-5---5--5--5-|
|-5---5-5-5-0-3-|-5---5---5-----|--------------|-------------|

|---------------|------|
|---------------|------|
|-3---3-x-3-----|-3----|
|-----------3-5-|------|

Chorus and Ending

|-------7-------|-------7-----|--------------|--------------|
|---------7-----|---------7---|--------------|-------5-5--5-|
|-5---5---------|-5---5-------|--------------|--------------|
|-----------7-8-|-------------|-5---5-5-5--5-|-3---3--------|

|-------------|---------------|--------------|---------------|
|-4---4-4---4-|-3---3-333-----|--------------|---------------|
|-------------|-------------2-|-3---3-3-x----|-3---3-3-3--3--|
|-------------|-----------5---|----------3-5-|---------------|

|-------7------|-------7------|-----5-5-----|-----5-5----|
|-----7---7--7-|-----7---7----|-3---------3-|-3----------|
|-5------------|-5----------5-|-------------|------------|
|--------------|--------------|-------------|------------|

|------*|
|------*|
|-3----*|
|------*|
comments
We did not receive enough feedback on this tab! Please rate:
print report bad tab
1 2 3 4 5
I want to post or [tab]
guest
You may want to rate the tab now too:
select rating
Please do not post tabs as comments. Select "correction" instead!