Oops, an error
Loading. Please wait.

Pearl Of The Quarter bass

version 1
version 1

Whole song

365 views 3 this week
no commentswrite comment
1 2 3 4 5
1 last vote to show rating
add to favorites
×
Save as Personal and add changes to this tab that will be seen only by you. Learn more ›
×
You can save this tab as Personal to edit and correct it or add notes. All changes will be seen only by you. Learn more »
launch autoscroll
font size
0
reset
guitar tuner
edit
Autoscroll
slow
fast
+/-
esc
set tempo
stop
-------------------------------------------------------------------------------
                             Pearl of the Quarter - Steely Dan
-------------------------------------------------------------------------------
Tabbed by: Mike Kunz
E-mail: rmjk21@embarqmail.com

Tuning:

  ( intro )                     On the water down in New Orleans
G|-----------------------------|--------------|--------------|--------------|
D|----5---33-2-----------------|-----5-5-3--2-|-----5-5-3--2-|-----5-5-3--2-|
A|-33------------5-5-----3-----|-3-3----------|-3-3----------|-3-3----------|
E|-------------------6-6-------|--------------|--------------|--------------|

  Singin Voulez Voulez Voulez vous
G|---------------|--------------|--------------|--------------|---------------|
D|---------------|-----5-5-3--2-|-----5-5-3--2-|-----5-5-3--2-|---------------|
A|-5-5-----------|-3-3----------|-3-3----------|-3-3----------|-5-5-----------|
E|-----6-6-5-----|--------------|--------------|--------------|-----6-6-5-----|
  
  ( chorus )
  And if you hear from my Louise
G|-------------------------------|-------------------------------|
D|-6-6-5-5-4-4-3-3-2-2-1-1-------|-6-6-5-5-4-4-3-3-2-2-1-1-------|
A|-------------------------5-5-3-|-------------------------5-5-3-|
E|-------------------------------|-------------------------------|

 ( interlude )                  I walked alone down the miracle mile
G|-----------------------------|--------------|--------------|--------------|
D|----5---33-2-----------------|-----5-5-3--2-|-----5-5-3--2-|-----5-5-3--2-|
A|-33------------5-5-----3-----|-3-3----------|-3-3----------|-3-3----------|
E|-------------------6-6-------|--------------|--------------|--------------|
               
                                   she loved the million dollar words I say 
G|---------------|--------------|--------------|--------------|---------------|
D|---------------|-----5-5-3--2-|-----5-5-3--2-|-----5-5-3--2-|---------------|
A|-5-5-----------|-3-3----------|-3-3----------|-3-3----------|-5-5-----------|
E|-----6-6-5-----|--------------|--------------|--------------|-----6-6-5-----|

 ( chorus )
  And if you hear from my Louise
G|-------------------------------|-------------------------------|
D|-6-6-5-5-4-4-3-3-2-2-1-1-------|-6-6-5-5-4-4-3-3-2-2-1-1-------|
A|-------------------------5-5-3-|-------------------------5-5-3-|
E|-------------------------------|-------------------------------|
  
  ( guitar Lead )
G|---------------------------------------------------------------------------|
D|-3-3-----5-5-5-5-3-3-----5-5-5-5---------3-3-5----------3------------------|
A|-----3-3-------------3-3---------5-5-7-7-------------3h5--5-5-----3-33h5-3-|
E|-------------------------------------------------------------6-6-----------|

 ( chorus )
  And if you hear from my Louise
G|--------------------------------|-------------------------------|
D|-6-6-5-5-4-4-3-3-2-2-1-1--------|-6-6-5-5-4-4-3-3-2-2-1-1-------|
A|-------------------------5-5-3--|-------------------------5-5-3-|
E|--------------------------------|-------------------------------|

 ( outro )                     
G|-----------------------------|
D|----5---33-2-----------------|
A|-33------------5-5-----3-----|
E|-------------------6-6-------|



            
            
Suggest correction
Creating personal tab
Creating personal tab
You can edit any tab online and save it as your Personal.

You can edit, replace or remove any tab part or add personal notes – all changes will be seen only by you.

Personal tabs can be accessed anytime from any device, even offline.
Learn more »
Give kudos to tab author, rate the tab!
1 2 3 4 5
comments
print report bad tab
guest
You may want to rate the tab now too:
select rating
Wanna post a correction for this tab? Suggest correction